  0
SECTION
  2
HEADER
  9
$ACADVER
  1
AC1014
  9
$ACADMAINTVER
 70
     9
  9
$DWGCODEPAGE
  3
ANSI_932
  9
$INSBASE
 10
0.0
 20
0.0
 30
0.0
  9
$EXTMIN
 10
2229.849629322057
 20
818.6797431106786
 30
0.0
  9
$EXTMAX
 10
2670.100202065186
 20
1168.739598242965
 30
0.0
  9
$LIMMIN
 10
0.0
 20
0.0
  9
$LIMMAX
 10
420.0
 20
297.0
  9
$ORTHOMODE
 70
     1
  9
$REGENMODE
 70
     1
  9
$FILLMODE
 70
     1
  9
$QTEXTMODE
 70
     0
  9
$MIRRTEXT
 70
     1
  9
$DRAGMODE
 70
     2
  9
$LTSCALE
 40
1.0
  9
$OSMODE
 70
    55
  9
$ATTMODE
 70
     1
  9
$TEXTSIZE
 40
0.2
  9
$TRACEWID
 40
1.0
  9
$TEXTSTYLE
  7
STYLE1
  9
$CLAYER
  8
0
  9
$CELTYPE
  6
BYLAYER
  9
$CECOLOR
 62
   256
  9
$CELTSCALE
 40
1.0
  9
$DELOBJ
 70
     1
  9
$DISPSILH
 70
     0
  9
$DIMSCALE
 40
1.0
  9
$DIMASZ
 40
2.5
  9
$DIMEXO
 40
0.625
  9
$DIMDLI
 40
3.75
  9
$DIMRND
 40
0.0
  9
$DIMDLE
 40
0.0
  9
$DIMEXE
 40
1.25
  9
$DIMTP
 40
0.0
  9
$DIMTM
 40
0.0
  9
$DIMTXT
 40
2.5
  9
$DIMCEN
 40
2.5
  9
$DIMTSZ
 40
0.0
  9
$DIMTOL
 70
     0
  9
$DIMLIM
 70
     0
  9
$DIMTIH
 70
     0
  9
$DIMTOH
 70
     0
  9
$DIMSE1
 70
     0
  9
$DIMSE2
 70
     0
  9
$DIMTAD
 70
     1
  9
$DIMZIN
 70
     8
  9
$DIMBLK
  1

  9
$DIMASO
 70
     1
  9
$DIMSHO
 70
     1
  9
$DIMPOST
  1

  9
$DIMAPOST
  1

  9
$DIMALT
 70
     0
  9
$DIMALTD
 70
     3
  9
$DIMALTF
 40
0.03937007874016
  9
$DIMLFAC
 40
4.0
  9
$DIMTOFL
 70
     1
  9
$DIMTVP
 40
0.0
  9
$DIMTIX
 70
     0
  9
$DIMSOXD
 70
     0
  9
$DIMSAH
 70
     0
  9
$DIMBLK1
  1

  9
$DIMBLK2
  1

  9
$DIMSTYLE
  2
ISO-25
  9
$DIMCLRD
 70
     0
  9
$DIMCLRE
 70
     0
  9
$DIMCLRT
 70
     0
  9
$DIMTFAC
 40
1.0
  9
$DIMGAP
 40
0.625
  9
$DIMJUST
 70
     0
  9
$DIMSD1
 70
     0
  9
$DIMSD2
 70
     0
  9
$DIMTOLJ
 70
     1
  9
$DIMTZIN
 70
     8
  9
$DIMALTZ
 70
     8
  9
$DIMALTTZ
 70
     8
  9
$DIMFIT
 70
     5
  9
$DIMUPT
 70
     0
  9
$DIMUNIT
 70
     2
  9
$DIMDEC
 70
     1
  9
$DIMTDEC
 70
     4
  9
$DIMALTU
 70
     2
  9
$DIMALTTD
 70
     3
  9
$DIMTXSTY
  7
STANDARD
  9
$DIMAUNIT
 70
     0
  9
$LUNITS
 70
     2
  9
$LUPREC
 70
     4
  9
$SKETCHINC
 40
1.0
  9
$FILLETRAD
 40
1.0
  9
$AUNITS
 70
     0
  9
$AUPREC
 70
     0
  9
$MENU
  1
.
  9
$ELEVATION
 40
0.0
  9
$PELEVATION
 40
0.0
  9
$THICKNESS
 40
0.0
  9
$LIMCHECK
 70
     0
  9
$CHAMFERA
 40
10.0
  9
$CHAMFERB
 40
10.0
  9
$CHAMFERC
 40
0.0
  9
$CHAMFERD
 40
0.0
  9
$SKPOLY
 70
     0
  9
$TDCREATE
 40
2452261.952194444
  9
$TDUPDATE
 40
2460322.670173496
  9
$TDINDWG
 40
1.4574052778
  9
$TDUSRTIMER
 40
0.0003477315
  9
$USRTIMER
 70
     1
  9
$ANGBASE
 50
0.0
  9
$ANGDIR
 70
     0
  9
$PDMODE
 70
     0
  9
$PDSIZE
 40
0.0
  9
$PLINEWID
 40
0.0
  9
$COORDS
 70
     1
  9
$SPLFRAME
 70
     0
  9
$SPLINETYPE
 70
     6
  9
$SPLINESEGS
 70
     8
  9
$ATTDIA
 70
     0
  9
$ATTREQ
 70
     1
  9
$HANDLING
 70
     1
  9
$HANDSEED
  5
CBAE
  9
$SURFTAB1
 70
     6
  9
$SURFTAB2
 70
     6
  9
$SURFTYPE
 70
     6
  9
$SURFU
 70
     6
  9
$SURFV
 70
     6
  9
$UCSNAME
  2

  9
$UCSORG
 10
0.0
 20
0.0
 30
0.0
  9
$UCSXDIR
 10
1.0
 20
0.0
 30
0.0
  9
$UCSYDIR
 10
0.0
 20
1.0
 30
0.0
  9
$PUCSNAME
  2

  9
$PUCSORG
 10
0.0
 20
0.0
 30
0.0
  9
$PUCSXDIR
 10
1.0
 20
0.0
 30
0.0
  9
$PUCSYDIR
 10
0.0
 20
1.0
 30
0.0
  9
$USERI1
 70
     0
  9
$USERI2
 70
     0
  9
$USERI3
 70
     0
  9
$USERI4
 70
     0
  9
$USERI5
 70
     0
  9
$USERR1
 40
0.0
  9
$USERR2
 40
0.0
  9
$USERR3
 40
0.0
  9
$USERR4
 40
0.0
  9
$USERR5
 40
0.0
  9
$WORLDVIEW
 70
     0
  9
$SHADEDGE
 70
     3
  9
$SHADEDIF
 70
    70
  9
$TILEMODE
 70
     1
  9
$MAXACTVP
 70
    64
  9
$PINSBASE
 10
0.0
 20
0.0
 30
0.0
  9
$PLIMCHECK
 70
     0
  9
$PEXTMIN
 10
1.000000000000000E+20
 20
1.000000000000000E+20
 30
1.000000000000000E+20
  9
$PEXTMAX
 10
-1.000000000000000E+20
 20
-1.000000000000000E+20
 30
-1.000000000000000E+20
  9
$PLIMMIN
 10
0.0
 20
0.0
  9
$PLIMMAX
 10
0.0
 20
0.0
  9
$UNITMODE
 70
     0
  9
$VISRETAIN
 70
     1
  9
$PLINEGEN
 70
     0
  9
$PSLTSCALE
 70
     1
  9
$TREEDEPTH
 70
  3020
  9
$PICKSTYLE
 70
     0
  9
$CMLSTYLE
  2
STANDARD
  9
$CMLJUST
 70
     0
  9
$CMLSCALE
 40
1.0
  9
$PROXYGRAPHICS
 70
     1
  9
$MEASUREMENT
 70
     0
  0
ENDSEC
  0
SECTION
  2
CLASSES
  0
CLASS
  1
ACDBDICTIONARYWDFLT
  2
AcDbDictionaryWithDefault
  3
ObjectDBX Classes
 90
        0
280
     0
281
     0
  0
CLASS
  1
ACDBPLACEHOLDER
  2
AcDbPlaceHolder
  3
ObjectDBX Classes
 90
        0
280
     0
281
     0
  0
CLASS
  1
LAYOUT
  2
AcDbLayout
  3
ObjectDBX Classes
 90
        0
280
     0
281
     0
  0
CLASS
  1
VISUALSTYLE
  2
AcDbVisualStyle
  3
ObjectDBX Classes
 90
     4095
280
     0
281
     0
  0
CLASS
  1
SCALE
  2
AcDbScale
  3
ObjectDBX Classes
 90
     1153
280
     0
281
     0
  0
CLASS
  1
MATERIAL
  2
AcDbMaterial
  3
ObjectDBX Classes
 90
     1153
280
     0
281
     0
  0
CLASS
  1
TABLESTYLE
  2
AcDbTableStyle
  3
ObjectDBX Classes
 90
     4095
280
     0
281
     0
  0
CLASS
  1
MLEADERSTYLE
  2
AcDbMLeaderStyle
  3
ACDB_MLEADERSTYLE_CLASS
 90
     4095
280
     0
281
     0
  0
CLASS
  1
SUN
  2
AcDbSun
  3
SCENEOE
 90
     1153
280
     0
281
     0
  0
CLASS
  1
RASTERVARIABLES
  2
AcDbRasterVariables
  3
ISM
 90
        0
280
     0
281
     0
  0
CLASS
  1
DICTIONARYVAR
  2
AcDbDictionaryVar
  3
ObjectDBX Classes
 90
        0
280
     0
281
     0
  0
CLASS
  1
SORTENTSTABLE
  2
AcDbSortentsTable
  3
ObjectDBX Classes
 90
        0
280
     0
281
     0
  0
CLASS
  1
DIMASSOC
  2
AcDbDimAssoc
  3
"AcDbDimAssoc|Product Desc:     AcDim ARX App For Dimension|Company:          Autodesk, Inc.|WEB Address:      www.autodesk.com"
 90
        0
280
     0
281
     0
  0
CLASS
  1
XRECORD
  2
AcDbXrecord
  3
ObjectDBX Classes
 90
        0
280
     0
281
     0
  0
CLASS
  1
LWPOLYLINE
  2
AcDbPolyline
  3
ObjectDBX Classes
 90
        0
280
     0
281
     1
  0
CLASS
  1
HATCH
  2
AcDbHatch
  3
ObjectDBX Classes
 90
        0
280
     0
281
     1
  0
ENDSEC
  0
SECTION
  2
TABLES
  0
TABLE
  2
VPORT
  5
A9F1
330
0
100
AcDbSymbolTable
 70
     1
  0
VPORT
  5
AAA1
330
A9F1
100
AcDbSymbolTableRecord
100
AcDbViewportTableRecord
  2
*ACTIVE
 70
     0
 10
0.0
 20
0.0
 11
1.0
 21
1.0
 12
2449.090640405759
 22
999.1549448050137
 13
0.0
 23
0.0
 14
10.0
 24
10.0
 15
10.0
 25
10.0
 16
0.0
 26
0.0
 36
1.0
 17
0.0
 27
0.0
 37
0.0
 40
446.3263152936657
 41
1.684045881126173
 42
50.0
 43
0.0
 44
0.0
 50
0.0
 51
0.0
 71
    16
 72
   100
 73
     1
 74
     3
 75
     0
 76
     0
 77
     0
 78
     0
  0
ENDTAB
  0
TABLE
  2
LTYPE
  5
A9EE
330
0
100
AcDbSymbolTable
 70
     2
  0
LTYPE
  5
A9FC
330
A9EE
100
AcDbSymbolTableRecord
100
AcDbLinetypeTableRecord
  2
BYBLOCK
 70
     0
  3

 72
    65
 73
     0
 40
0.0
  0
LTYPE
  5
A9FD
330
A9EE
100
AcDbSymbolTableRecord
100
AcDbLinetypeTableRecord
  2
BYLAYER
 70
     0
  3

 72
    65
 73
     0
 40
0.0
  0
LTYPE
  5
A9FE
330
A9EE
100
AcDbSymbolTableRecord
100
AcDbLinetypeTableRecord
  2
CONTINUOUS
 70
     0
  3
Solid line
 72
    65
 73
     0
 40
0.0
  0
LTYPE
  5
BF30
330
A9EE
100
AcDbSymbolTableRecord
100
AcDbLinetypeTableRecord
  2
隠れ線
 70
     0
  3

 72
    65
 73
     2
 40
4.0
 49
2.0
 74
     0
 49
-2.0
 74
     0
  0
ENDTAB
  0
TABLE
  2
LAYER
  5
A9EB
102
{ACAD_XDICTIONARY
360
AAE8
102
}
330
0
100
AcDbSymbolTable
 70
     4
  0
LAYER
  5
A9F9
330
A9EB
100
AcDbSymbolTableRecord
100
AcDbLayerTableRecord
  2
0
 70
     0
 62
     7
  6
CONTINUOUS
  0
LAYER
  5
AA5B
330
A9EB
100
AcDbSymbolTableRecord
100
AcDbLayerTableRecord
  2
DIM
 70
     0
 62
     7
  6
CONTINUOUS
  0
LAYER
  5
B455
330
A9EB
100
AcDbSymbolTableRecord
100
AcDbLayerTableRecord
  2
OBJECT
 70
     0
 62
     7
  6
CONTINUOUS
  0
LAYER
  5
BF2F
330
A9EB
100
AcDbSymbolTableRecord
100
AcDbLayerTableRecord
  2
ガラス隠れ
 70
     0
 62
     7
  6
隠れ線
1001
ACAECLAYERSTANDARD
1000

1000

  0
ENDTAB
  0
TABLE
  2
STYLE
  5
A9EC
330
0
100
AcDbSymbolTable
 70
     3
  0
STYLE
  5
A9FA
330
A9EC
100
AcDbSymbolTableRecord
100
AcDbTextStyleTableRecord
  2
STANDARD
 70
     0
 40
0.0
 41
1.0
 50
0.0
 71
     0
 42
0.2
  3
txt
  4

  0
STYLE
  5
AA4C
330
A9EC
100
AcDbSymbolTableRecord
100
AcDbTextStyleTableRecord
  2
STYLE1
 70
     0
 40
0.0
 41
1.0
 50
0.0
 71
     0
 42
0.2
  3
ARSimp.shx
  4
ARExtFont.shx
  0
STYLE
  5
AB0C
330
A9EC
100
AcDbSymbolTableRecord
100
AcDbTextStyleTableRecord
  2
BLOCKFONT
 70
     0
 40
0.0
 41
1.0
 50
0.0
 71
     0
 42
0.2
  3
ARSimp.shx
  4
extfont2.shx
  0
ENDTAB
  0
TABLE
  2
VIEW
  5
A9EF
330
0
100
AcDbSymbolTable
 70
     0
  0
ENDTAB
  0
TABLE
  2
UCS
  5
A9F0
330
0
100
AcDbSymbolTable
 70
     0
  0
ENDTAB
  0
TABLE
  2
APPID
  5
A9F2
330
0
100
AcDbSymbolTable
 70
     6
  0
APPID
  5
A9FB
330
A9F2
100
AcDbSymbolTableRecord
100
AcDbRegAppTableRecord
  2
ACAD
 70
     0
  0
APPID
  5
AA51
330
A9F2
100
AcDbSymbolTableRecord
100
AcDbRegAppTableRecord
  2
ACAECLAYERSTANDARD
 70
     0
  0
APPID
  5
AA52
330
A9F2
100
AcDbSymbolTableRecord
100
AcDbRegAppTableRecord
  2
ACAD_SPLINE_DATA
 70
     0
  0
APPID
  5
AA53
330
A9F2
100
AcDbSymbolTableRecord
100
AcDbRegAppTableRecord
  2
ACAD_SPLINE_DATA2
 70
     0
  0
APPID
  5
AE76
330
A9F2
100
AcDbSymbolTableRecord
100
AcDbRegAppTableRecord
  2
PLOTTRANSPARENCY
 70
     0
  0
APPID
  5
B79B
330
A9F2
100
AcDbSymbolTableRecord
100
AcDbRegAppTableRecord
  2
ACAD_DSTYLE_DIMRADIAL_EXTE
 70
     0
  0
ENDTAB
  0
TABLE
  2
DIMSTYLE
  5
A9F3
330
0
100
AcDbSymbolTable
 70
     1
  0
DIMSTYLE
105
AA54
330
A9F3
100
AcDbSymbolTableRecord
100
AcDbDimStyleTableRecord
  2
ISO-25
 70
     0
  3

  4

  5

  6

  7

 40
1.0
 41
2.5
 42
0.625
 43
3.75
 44
1.25
 45
0.0
 46
0.0
 47
0.0
 48
0.0
140
2.5
141
2.5
142
0.0
143
0.03937007874016
144
4.0
145
0.0
146
1.0
147
0.625
 71
     0
 72
     0
 73
     0
 74
     0
 75
     0
 76
     0
 77
     1
 78
     8
170
     0
171
     3
172
     1
173
     0
174
     0
175
     0
176
     0
177
     0
178
     0
270
     2
271
     1
272
     4
273
     2
274
     3
340
A9FA
275
     0
280
     0
281
     0
282
     0
283
     1
284
     8
285
     8
286
     8
287
     5
288
     0
  0
ENDTAB
  0
TABLE
  2
BLOCK_RECORD
  5
A9EA
330
0
100
AcDbSymbolTable
 70
     0
  0
BLOCK_RECORD
  5
AA07
330
A9EA
100
AcDbSymbolTableRecord
100
AcDbBlockTableRecord
  2
*MODEL_SPACE
  0
BLOCK_RECORD
  5
AA03
330
A9EA
100
AcDbSymbolTableRecord
100
AcDbBlockTableRecord
  2
*PAPER_SPACE
  0
ENDTAB
  0
ENDSEC
  0
SECTION
  2
BLOCKS
  0
BLOCK
  5
AA62
330
AA07
100
AcDbEntity
  8
0
100
AcDbBlockBegin
  2
*MODEL_SPACE
 70
     0
 10
0.0
 20
0.0
 30
0.0
  3
*MODEL_SPACE
  1

  0
ENDBLK
  5
AA63
330
AA07
100
AcDbEntity
  8
0
100
AcDbBlockEnd
  0
BLOCK
  5
AA60
330
AA03
100
AcDbEntity
 67
     1
  8
0
100
AcDbBlockBegin
  2
*PAPER_SPACE
 70
     0
 10
0.0
 20
0.0
 30
0.0
  3
*PAPER_SPACE
  1

  0
ENDBLK
  5
AA61
330
AA03
100
AcDbEntity
 67
     1
  8
0
100
AcDbBlockEnd
  0
ENDSEC
  0
SECTION
  2
ENTITIES
  0
MTEXT
  5
B70C
330
AA07
100
AcDbEntity
  8
DIM
100
AcDbMText
 10
1927.141006165881
 20
908.1790955762777
 30
0.0
 40
2.5
 41
0.0
 71
     7
 72
     1
  1

  0
TEXT
  5
CB2D
330
AA07
100
AcDbEntity
  8
DIM
100
AcDbText
 10
2284.240115449717
 20
818.6797431106786
 30
0.0
 40
15.0
  1
YPL02
  7
BLOCKFONT
 72
     4
 11
2317.09725830686
 21
826.1797431106786
 31
0.0
100
AcDbText
  0
LINE
  5
CB2E
330
AA07
100
AcDbEntity
  8
ガラス隠れ
100
AcDbLine
 10
2541.100701802142
 20
968.7395982600584
 30
0.0
 11
2639.100409091913
 21
968.7395982600584
 31
0.0
  0
LINE
  5
CB2F
330
AA07
100
AcDbEntity
  8
OBJECT
100
AcDbLine
 10
2541.100971559817
 20
964.7395982599269
 30
0.0
 11
2639.100409024272
 21
964.7395982599269
 31
0.0
  0
LINE
  5
CB30
330
AA07
100
AcDbEntity
  8
OBJECT
100
AcDbLine
 10
2521.100971559908
 20
1163.23959825889
 30
0.0
 11
2521.100971559817
 21
984.739598259937
 31
0.0
  0
LINE
  5
CB31
330
AA07
100
AcDbEntity
  8
ガラス隠れ
100
AcDbLine
 10
2525.100947437348
 20
984.7395500140908
 30
0.0
 11
2525.100947437428
 21
1163.739598242963
 31
0.0
  0
LINE
  5
CB32
330
AA07
100
AcDbEntity
  8
OBJECT
100
AcDbLine
 10
2659.100139334148
 20
1163.23959825768
 30
0.0
 11
2659.100139334238
 21
984.7395379528908
 31
0.0
  0
LINE
  5
CB33
330
AA07
100
AcDbEntity
  8
ガラス隠れ
100
AcDbLine
 10
2655.100163456707
 20
984.7395500140908
 30
0.0
 11
2655.100163456627
 21
1163.739598258891
 31
0.0
  0
LINE
  5
CB34
330
AA07
100
AcDbEntity
  8
OBJECT
100
AcDbLine
 10
2670.100072997333
 20
1166.739604289491
 30
0.0
 11
2670.100072997328
 21
1164.739598258891
 31
0.0
  0
LINE
  5
CB35
330
AA07
100
AcDbEntity
  8
OBJECT
100
AcDbLine
 10
2510.101037896723
 20
1166.73959824296
 30
0.0
 11
2510.101037896728
 21
1164.739598258891
 31
0.0
  0
ARC
  5
CB36
330
AA07
100
AcDbEntity
  8
OBJECT
100
AcDbCircle
 10
2512.101037896723
 20
1166.739598242965
 30
0.0
 40
1.999999999999999
100
AcDbArc
 50
90.0
 51
180.0000000001433
  0
ARC
  5
CB37
330
AA07
100
AcDbEntity
  8
OBJECT
100
AcDbCircle
 10
2668.100202065186
 20
1166.734558273299
 30
0.0
 40
1.999999999999999
100
AcDbArc
 50
359.9962978134781
 51
89.99629781361486
  0
ARC
  5
CB38
330
AA07
100
AcDbEntity
  8
ガラス隠れ
100
AcDbCircle
 10
2520.100947437428
 20
1163.739598242965
 30
0.0
 40
4.999999999999999
100
AcDbArc
 50
0.0
 51
90.0
  0
LINE
  5
CB39
330
AA07
100
AcDbEntity
  8
OBJECT
100
AcDbLine
 10
2512.101037896723
 20
1168.739598242965
 30
0.0
 11
2668.10033129587
 21
1168.734558269124
 31
0.0
  0
ARC
  5
CB3A
330
AA07
100
AcDbEntity
  8
ガラス隠れ
100
AcDbCircle
 10
2660.100098695155
 20
1163.735075196451
 30
0.0
 40
4.999999999999999
100
AcDbArc
 50
89.99629781361746
 51
179.9962978136175
  0
ARC
  5
CB3B
330
AA07
100
AcDbEntity
  8
OBJECT
100
AcDbCircle
 10
2519.600971559908
 20
1163.239598258891
 30
0.0
 40
1.5
100
AcDbArc
 50
0.0
 51
90.0
  0
LINE
  5
CB3C
330
AA07
100
AcDbEntity
  8
OBJECT
100
AcDbLine
 10
2510.101037896728
 20
1164.739598258891
 30
0.0
 11
2670.100072997328
 21
1164.739598258891
 31
0.0
  0
ARC
  5
CB3D
330
AA07
100
AcDbEntity
  8
OBJECT
100
AcDbCircle
 10
2660.600042263962
 20
1163.235042907308
 30
0.0
 40
1.5
100
AcDbArc
 50
89.9962978136192
 51
179.9962978136192
  0
ARC
  5
CB3E
330
AA07
100
AcDbEntity
  8
OBJECT
100
AcDbCircle
 10
2541.100971559817
 20
984.7395982599269
 30
0.0
 40
20.0
100
AcDbArc
 50
179.999999999971
 51
270.0
  0
ARC
  5
CB3F
330
AA07
100
AcDbEntity
  8
ガラス隠れ
100
AcDbCircle
 10
2541.100971559817
 20
984.7395982599269
 30
0.0
 40
16.0
100
AcDbArc
 50
179.9999999999711
 51
270.0
  0
ARC
  5
CB40
330
AA07
100
AcDbEntity
  8
OBJECT
100
AcDbCircle
 10
2639.099060462728
 20
984.7429018984286
 30
0.0
 40
20.0
100
AcDbArc
 50
270.0038630251922
 51
0.0038630252212471
  0
ARC
  5
CB41
330
AA07
100
AcDbEntity
  8
ガラス隠れ
100
AcDbCircle
 10
2639.099060462728
 20
984.7429018984286
 30
0.0
 40
16.0
100
AcDbArc
 50
270.0038630251919
 51
0.0038630252212471
  0
LINE
  5
CB42
330
AA07
100
AcDbEntity
  8
OBJECT
100
AcDbLine
 10
2230.856285251838
 20
1161.767918124822
 30
0.0
 11
2398.842973392279
 21
1161.767918124822
 31
0.0
  0
LINE
  5
CB43
330
AA07
100
AcDbEntity
  8
OBJECT
100
AcDbLine
 10
2229.849629322064
 20
1146.767918124823
 30
0.0
 11
2399.849629322054
 21
1146.767918124821
 31
0.0
  0
LINE
  5
CB44
330
AA07
100
AcDbEntity
  8
OBJECT
100
AcDbLine
 10
2399.849629322059
 20
1146.767918124822
 30
0.0
 11
2399.342668805789
 21
1161.285367873173
 31
0.0
  0
LINE
  5
CB45
330
AA07
100
AcDbEntity
  8
OBJECT
100
AcDbLine
 10
2229.849629322057
 20
941.7679181248216
 30
0.0
 11
2399.84962932206
 21
941.7679181248216
 31
0.0
  0
LINE
  5
CB46
330
AA07
100
AcDbEntity
  8
OBJECT
100
AcDbLine
 10
2229.849629322057
 20
911.7679181248207
 30
0.0
 11
2399.849629322061
 21
911.7679181248207
 31
0.0
  0
LINE
  5
CB47
330
AA07
100
AcDbEntity
  8
OBJECT
100
AcDbLine
 10
2399.84962932206
 20
941.7679181248216
 30
0.0
 11
2399.849629322059
 21
1146.767918124822
 31
0.0
  0
LINE
  5
CB48
330
AA07
100
AcDbEntity
  8
OBJECT
100
AcDbLine
 10
2384.748680115969
 20
1146.767918124822
 30
0.0
 11
2384.748680115969
 21
941.7679181248216
 31
0.0
  0
LINE
  5
CB49
330
AA07
100
AcDbEntity
  8
OBJECT
100
AcDbLine
 10
2311.849629322059
 20
1146.767918124822
 30
0.0
 11
2311.847049645555
 21
941.7679181248217
 31
0.0
  0
LINE
  5
CB4A
330
AA07
100
AcDbEntity
  8
OBJECT
100
AcDbLine
 10
2317.849629322059
 20
941.7679181248216
 30
0.0
 11
2317.849629322059
 21
1146.767918124822
 31
0.0
  0
LINE
  5
CB4B
330
AA07
100
AcDbEntity
  8
OBJECT
100
AcDbLine
 10
2229.849629322059
 20
1146.767918124822
 30
0.0
 11
2230.356589838329
 21
1161.285367873173
 31
0.0
  0
LINE
  5
CB4C
330
AA07
100
AcDbEntity
  8
OBJECT
100
AcDbLine
 10
2229.849629322057
 20
941.7679181248216
 30
0.0
 11
2229.849629322059
 21
1146.767918124822
 31
0.0
  0
LINE
  5
CB4D
330
AA07
100
AcDbEntity
  8
OBJECT
100
AcDbLine
 10
2244.950578528149
 20
1146.767918124822
 30
0.0
 11
2244.950578528149
 21
941.7679181248216
 31
0.0
  0
ARC
  5
CB4E
330
AA07
100
AcDbEntity
  8
OBJECT
100
AcDbCircle
 10
2230.856285251838
 20
1161.267918124822
 30
0.0
 40
0.5000000000000001
100
AcDbArc
 50
90.0
 51
177.999999999996
  0
ARC
  5
CB4F
330
AA07
100
AcDbEntity
  8
OBJECT
100
AcDbCircle
 10
2398.842973392279
 20
1161.267918124822
 30
0.0
 40
0.5000000000000001
100
AcDbArc
 50
2.000000000003953
 51
90.0
  0
LINE
  5
CB50
330
AA07
100
AcDbEntity
  8
OBJECT
100
AcDbLine
 10
2240.660252299813
 20
910.2679181248216
 30
0.0
 11
2288.497371107499
 21
910.2679181248216
 31
0.0
  0
LINE
  5
CB51
330
AA07
100
AcDbEntity
  8
OBJECT
100
AcDbLine
 10
2288.597371107499
 20
911.7679181248207
 30
0.0
 11
2288.597371107499
 21
910.3679181248217
 31
0.0
  0
LINE
  5
CB52
330
AA07
100
AcDbEntity
  8
OBJECT
100
AcDbLine
 10
2240.560252299813
 20
911.7679181248207
 30
0.0
 11
2240.560252299813
 21
910.3679181248216
 31
0.0
  0
ARC
  5
CB53
330
AA07
100
AcDbEntity
  8
OBJECT
100
AcDbCircle
 10
2240.660252299813
 20
910.3679181248216
 30
0.0
 40
0.1
100
AcDbArc
 50
180.0
 51
270.0
  0
ARC
  5
CB54
330
AA07
100
AcDbEntity
  8
OBJECT
100
AcDbCircle
 10
2288.497371107499
 20
910.3679181248216
 30
0.0
 40
0.1
100
AcDbArc
 50
270.0
 51
0.0
  0
LINE
  5
CB55
330
AA07
100
AcDbEntity
  8
OBJECT
100
AcDbLine
 10
2389.039006344305
 20
910.2679181248216
 30
0.0
 11
2341.201887536618
 21
910.2679181248216
 31
0.0
  0
LINE
  5
CB56
330
AA07
100
AcDbEntity
  8
OBJECT
100
AcDbLine
 10
2341.101887536618
 20
911.7679181248207
 30
0.0
 11
2341.101887536618
 21
910.3679181248217
 31
0.0
  0
LINE
  5
CB57
330
AA07
100
AcDbEntity
  8
OBJECT
100
AcDbLine
 10
2389.139006344305
 20
911.7679181248207
 30
0.0
 11
2389.139006344305
 21
910.3679181248216
 31
0.0
  0
ARC
  5
CB58
330
AA07
100
AcDbEntity
  8
OBJECT
100
AcDbCircle
 10
2389.039006344305
 20
910.3679181248216
 30
0.0
 40
0.1
100
AcDbArc
 50
270.0
 51
0.0
  0
ARC
  5
CB59
330
AA07
100
AcDbEntity
  8
OBJECT
100
AcDbCircle
 10
2341.201887536618
 20
910.3679181248216
 30
0.0
 40
0.1
100
AcDbArc
 50
180.0
 51
270.0
  0
CIRCLE
  5
CB5A
330
AA07
100
AcDbEntity
  8
OBJECT
100
AcDbCircle
 10
2314.849629322059
 20
926.7679181248216
 30
0.0
 40
5.999999999999867
  0
CIRCLE
  5
CB5B
330
AA07
100
AcDbEntity
  8
OBJECT
100
AcDbCircle
 10
2314.849629322059
 20
926.7679181248216
 30
0.0
 40
4.5
  0
LINE
  5
CB5C
330
AA07
100
AcDbEntity
  8
OBJECT
100
AcDbLine
 10
2229.849629322057
 20
941.5679181248216
 30
0.0
 11
2229.849629322057
 21
911.7679181248207
 31
0.0
  0
LINE
  5
CB5D
330
AA07
100
AcDbEntity
  8
OBJECT
100
AcDbLine
 10
2399.849629322061
 20
941.5679181248216
 30
0.0
 11
2399.849629322061
 21
911.7679181248207
 31
0.0
  0
ARC
  5
CB5E
330
AA07
100
AcDbEntity
  8
OBJECT
100
AcDbCircle
 10
2399.64962932206
 20
941.5679181248216
 30
0.0
 40
0.2
100
AcDbArc
 50
0.0
 51
90.0
  0
ARC
  5
CB5F
330
AA07
100
AcDbEntity
  8
OBJECT
100
AcDbCircle
 10
2230.049629322058
 20
941.5679181248216
 30
0.0
 40
0.2
100
AcDbArc
 50
90.0
 51
180.0
  0
ENDSEC
  0
SECTION
  2
OBJECTS
  0
DICTIONARY
  5
A9F5
330
0
100
AcDbDictionary
  3
ACAD_DETAILVIEWSTYLE
350
AAF0
  3
ACAD_GROUP
350
A9F6
  3
ACAD_IMAGE_VARS
350
AAE7
  3
ACAD_MLINESTYLE
350
A9FF
  3
ACAD_SCALELIST
350
AABB
  3
ACAD_SECTIONVIEWSTYLE
350
AAF1
  3
ACADDIM
350
BEC2
  3
ACDBVARIABLEDICTIONARY
350
AAEB
  3
APPDATA
350
AAE5
  3
CENTERLINE
350
AAF8
  3
DIMOFFSETDICTIONARY
350
AAF3
  3
DWGPROPS
350
CBAD
  0
DICTIONARY
  5
AAE8
330
A9EB
100
AcDbDictionary
280
     1
  3
ACAD_LAYERSTATES
360
AAE9
  3
ACLYDICTIONARY
360
BF0E
  0
DICTIONARY
  5
AAF0
102
{ACAD_REACTORS
330
A9F5
102
}
330
A9F5
100
AcDbDictionary
  0
DICTIONARY
  5
A9F6
102
{ACAD_REACTORS
330
A9F5
102
}
330
A9F5
100
AcDbDictionary
  0
RASTERVARIABLES
  5
AAE7
102
{ACAD_REACTORS
330
A9F5
102
}
330
A9F5
100
AcDbRasterVariables
 90
        0
 70
     1
 71
     1
 72
     0
  0
DICTIONARY
  5
A9FF
102
{ACAD_REACTORS
330
A9F5
102
}
330
A9F5
100
AcDbDictionary
  3
STANDARD
350
AA00
  0
DICTIONARY
  5
AABB
102
{ACAD_REACTORS
330
A9F5
102
}
330
A9F5
100
AcDbDictionary
  0
DICTIONARY
  5
AAF1
102
{ACAD_REACTORS
330
A9F5
102
}
330
A9F5
100
AcDbDictionary
  0
XRECORD
  5
BEC2
102
{ACAD_REACTORS
330
A9F5
102
}
330
A9F5
100
AcDbXrecord
340
0
 72
     0
 71
     0
 70
     0
 69
     0
 68
     1
 67
     3
 66
     0
 65
     0
 64
     0
 63
     3
 62
     1
 61
     0
 60
     0
 40
0.0
  0
DICTIONARY
  5
AAEB
102
{ACAD_REACTORS
330
A9F5
102
}
330
A9F5
100
AcDbDictionary
  0
DICTIONARY
  5
AAE5
102
{ACAD_REACTORS
330
A9F5
102
}
330
A9F5
100
AcDbDictionary
  0
DICTIONARY
  5
AAF8
102
{ACAD_REACTORS
330
A9F5
102
}
330
A9F5
100
AcDbDictionary
  3
CLEXTENSION
350
AB05
  0
DICTIONARY
  5
AAF3
102
{ACAD_REACTORS
330
A9F5
102
}
330
A9F5
100
AcDbDictionary
  3
DIMRAILANGLE
350
AB03
  3
DIMRAILFIRSTOFFSET
350
AB01
  3
DIMRAILOFFSET
350
AB02
  3
DIMRAILSENABLED
350
AB04
  0
XRECORD
  5
CBAD
102
{ACAD_REACTORS
330
A9F5
102
}
330
A9F5
100
AcDbXrecord
  1
DWGPROPS COOKIE
  2

  3

  4

  6

  7

  8
ougi
  9

300
=
301
=
302
=
303
=
304
=
305
=
306
=
307
=
308
=
309
=
 40
0.0
 41
2452261.577194444
 42
2460322.295173496
  1

 90
        0
  0
DICTIONARY
  5
AAE9
102
{ACAD_REACTORS
330
AAE8
102
}
330
AAE8
100
AcDbDictionary
  0
DICTIONARY
  5
BF0E
102
{ACAD_REACTORS
330
AAE8
102
}
330
AAE8
100
AcDbDictionary
1001
ACAD
1000
<All
  0
MLINESTYLE
  5
AA00
102
{ACAD_REACTORS
330
A9FF
102
}
330
A9FF
100
AcDbMlineStyle
  2
STANDARD
 70
     0
  3

 62
   256
 51
90.0
 52
90.0
 71
     2
 49
0.5
 62
   256
  6
BYLAYER
 49
-0.5
 62
   256
  6
BYLAYER
  0
DICTIONARYVAR
  5
AB05
102
{ACAD_REACTORS
330
AAF8
102
}
330
AAF8
100
DictionaryVariables
280
     0
  1
0.250000
  0
DICTIONARYVAR
  5
AB03
102
{ACAD_REACTORS
330
AAF3
102
}
330
AAF3
100
DictionaryVariables
280
     0
  1
0.261799
  0
DICTIONARYVAR
  5
AB01
102
{ACAD_REACTORS
330
AAF3
102
}
330
AAF3
100
DictionaryVariables
280
     0
  1
0.400000
  0
DICTIONARYVAR
  5
AB02
102
{ACAD_REACTORS
330
AAF3
102
}
330
AAF3
100
DictionaryVariables
280
     0
  1
0.250000
  0
DICTIONARYVAR
  5
AB04
102
{ACAD_REACTORS
330
AAF3
102
}
330
AAF3
100
DictionaryVariables
280
     0
  1
0
  0
ENDSEC
  0
EOF
