  0
SECTION
  2
HEADER
  9
$ACADVER
  1
AC1014
  9
$ACADMAINTVER
 70
     9
  9
$DWGCODEPAGE
  3
ANSI_932
  9
$INSBASE
 10
0.0
 20
0.0
 30
0.0
  9
$EXTMIN
 10
2365.15479968775
 20
836.7802076009681
 30
0.0
  9
$EXTMAX
 10
2440.157566402601
 20
1139.861646842877
 30
0.0
  9
$LIMMIN
 10
0.0
 20
0.0
  9
$LIMMAX
 10
420.0
 20
297.0
  9
$ORTHOMODE
 70
     1
  9
$REGENMODE
 70
     1
  9
$FILLMODE
 70
     1
  9
$QTEXTMODE
 70
     0
  9
$MIRRTEXT
 70
     1
  9
$DRAGMODE
 70
     2
  9
$LTSCALE
 40
1.0
  9
$OSMODE
 70
    39
  9
$ATTMODE
 70
     1
  9
$TEXTSIZE
 40
10.0
  9
$TRACEWID
 40
1.0
  9
$TEXTSTYLE
  7
STANDARD
  9
$CLAYER
  8
0
  9
$CELTYPE
  6
BYLAYER
  9
$CECOLOR
 62
   256
  9
$CELTSCALE
 40
0.5
  9
$DELOBJ
 70
     1
  9
$DISPSILH
 70
     0
  9
$DIMSCALE
 40
1.0
  9
$DIMASZ
 40
2.5
  9
$DIMEXO
 40
0.625
  9
$DIMDLI
 40
3.75
  9
$DIMRND
 40
0.0
  9
$DIMDLE
 40
0.0
  9
$DIMEXE
 40
1.25
  9
$DIMTP
 40
0.0
  9
$DIMTM
 40
0.0
  9
$DIMTXT
 40
2.5
  9
$DIMCEN
 40
2.5
  9
$DIMTSZ
 40
0.0
  9
$DIMTOL
 70
     0
  9
$DIMLIM
 70
     0
  9
$DIMTIH
 70
     0
  9
$DIMTOH
 70
     0
  9
$DIMSE1
 70
     0
  9
$DIMSE2
 70
     0
  9
$DIMTAD
 70
     1
  9
$DIMZIN
 70
     8
  9
$DIMBLK
  1

  9
$DIMASO
 70
     1
  9
$DIMSHO
 70
     1
  9
$DIMPOST
  1

  9
$DIMAPOST
  1

  9
$DIMALT
 70
     0
  9
$DIMALTD
 70
     3
  9
$DIMALTF
 40
0.03937007874016
  9
$DIMLFAC
 40
1.0
  9
$DIMTOFL
 70
     1
  9
$DIMTVP
 40
0.0
  9
$DIMTIX
 70
     0
  9
$DIMSOXD
 70
     0
  9
$DIMSAH
 70
     0
  9
$DIMBLK1
  1

  9
$DIMBLK2
  1

  9
$DIMSTYLE
  2
ISO-25
  9
$DIMCLRD
 70
     0
  9
$DIMCLRE
 70
     0
  9
$DIMCLRT
 70
     0
  9
$DIMTFAC
 40
1.0
  9
$DIMGAP
 40
0.625
  9
$DIMJUST
 70
     0
  9
$DIMSD1
 70
     0
  9
$DIMSD2
 70
     0
  9
$DIMTOLJ
 70
     0
  9
$DIMTZIN
 70
     8
  9
$DIMALTZ
 70
     0
  9
$DIMALTTZ
 70
     0
  9
$DIMFIT
 70
     3
  9
$DIMUPT
 70
     0
  9
$DIMUNIT
 70
     2
  9
$DIMDEC
 70
     1
  9
$DIMTDEC
 70
     1
  9
$DIMALTU
 70
     2
  9
$DIMALTTD
 70
     3
  9
$DIMTXSTY
  7
STANDARD
  9
$DIMAUNIT
 70
     0
  9
$LUNITS
 70
     2
  9
$LUPREC
 70
     4
  9
$SKETCHINC
 40
1.0
  9
$FILLETRAD
 40
25.0
  9
$AUNITS
 70
     0
  9
$AUPREC
 70
     0
  9
$MENU
  1
.
  9
$ELEVATION
 40
0.0
  9
$PELEVATION
 40
0.0
  9
$THICKNESS
 40
0.0
  9
$LIMCHECK
 70
     0
  9
$BLIPMODE
 70
     0
  9
$CHAMFERA
 40
10.0
  9
$CHAMFERB
 40
10.0
  9
$CHAMFERC
 40
20.0
  9
$CHAMFERD
 40
0.0
  9
$SKPOLY
 70
     0
  9
$TDCREATE
 40
2452262.702194444
  9
$TDUPDATE
 40
2457767.464095949
  9
$TDINDWG
 40
0.4498863426
  9
$TDUSRTIMER
 40
0.4498856481
  9
$USRTIMER
 70
     1
  9
$ANGBASE
 50
0.0
  9
$ANGDIR
 70
     0
  9
$PDMODE
 70
     0
  9
$PDSIZE
 40
0.0
  9
$PLINEWID
 40
0.0
  9
$COORDS
 70
     1
  9
$SPLFRAME
 70
     0
  9
$SPLINETYPE
 70
     6
  9
$SPLINESEGS
 70
     8
  9
$ATTDIA
 70
     0
  9
$ATTREQ
 70
     1
  9
$HANDLING
 70
 10241
  9
$HANDSEED
  5
1019
  9
$SURFTAB1
 70
     6
  9
$SURFTAB2
 70
     6
  9
$SURFTYPE
 70
     6
  9
$SURFU
 70
     6
  9
$SURFV
 70
     6
  9
$UCSNAME
  2

  9
$UCSORG
 10
0.0
 20
0.0
 30
0.0
  9
$UCSXDIR
 10
1.0
 20
0.0
 30
0.0
  9
$UCSYDIR
 10
0.0
 20
1.0
 30
0.0
  9
$PUCSNAME
  2

  9
$PUCSORG
 10
0.0
 20
0.0
 30
0.0
  9
$PUCSXDIR
 10
1.0
 20
0.0
 30
0.0
  9
$PUCSYDIR
 10
0.0
 20
1.0
 30
0.0
  9
$USERI1
 70
     0
  9
$USERI2
 70
     0
  9
$USERI3
 70
     0
  9
$USERI4
 70
     0
  9
$USERI5
 70
     0
  9
$USERR1
 40
0.0
  9
$USERR2
 40
0.0
  9
$USERR3
 40
0.0
  9
$USERR4
 40
0.0
  9
$USERR5
 40
0.0
  9
$WORLDVIEW
 70
     1
  9
$SHADEDGE
 70
     3
  9
$SHADEDIF
 70
    70
  9
$TILEMODE
 70
     1
  9
$MAXACTVP
 70
    64
  9
$PINSBASE
 10
0.0
 20
0.0
 30
0.0
  9
$PLIMCHECK
 70
     0
  9
$PEXTMIN
 10
1.000000000000000E+20
 20
1.000000000000000E+20
 30
1.000000000000000E+20
  9
$PEXTMAX
 10
-1.000000000000000E+20
 20
-1.000000000000000E+20
 30
-1.000000000000000E+20
  9
$PLIMMIN
 10
0.0
 20
0.0
  9
$PLIMMAX
 10
420.0
 20
297.0
  9
$UNITMODE
 70
     0
  9
$VISRETAIN
 70
     1
  9
$PLINEGEN
 70
     0
  9
$PSLTSCALE
 70
     1
  9
$TREEDEPTH
 70
  3020
  9
$PICKSTYLE
 70
     1
  9
$CMLSTYLE
  2
STANDARD
  9
$CMLJUST
 70
     0
  9
$CMLSCALE
 40
20.0
  9
$PROXYGRAPHICS
 70
     1
  9
$MEASUREMENT
 70
     1
  0
ENDSEC
  0
SECTION
  2
CLASSES
  0
CLASS
  1
ACDBDICTIONARYWDFLT
  2
AcDbDictionaryWithDefault
  3
AutoCAD 2000
 90
        0
280
     0
281
     0
  0
CLASS
  1
ACDBPLACEHOLDER
  2
AcDbPlaceHolder
  3
AutoCAD 2000
 90
        0
280
     0
281
     0
  0
CLASS
  1
LAYOUT
  2
AcDbLayout
  3
AutoCAD 2000
 90
        0
280
     0
281
     0
  0
CLASS
  1
LONG_TRANSACTION
  2
AcDbLongTransaction
  3
AutoCAD 2000
 90
        0
280
     0
281
     0
  0
CLASS
  1
LWPOLYLINE
  2
AcDbPolyline
  3
AutoCAD 2000
 90
        0
280
     0
281
     1
  0
CLASS
  1
HATCH
  2
AcDbHatch
  3
AutoCAD 2000
 90
        0
280
     0
281
     1
  0
CLASS
  1
XRECORD
  2
AcDbXrecord
  3
AutoCAD 2000
 90
        0
280
     0
281
     0
  0
ENDSEC
  0
SECTION
  2
TABLES
  0
TABLE
  2
VPORT
  5
8
330
0
100
AcDbSymbolTable
 70
     2
  0
VPORT
  5
FF2
330
8
100
AcDbSymbolTableRecord
100
AcDbViewportTableRecord
  2
*ACTIVE
 70
     0
 10
0.0
 20
0.0
 11
1.0
 21
1.0
 12
2468.98233450318
 22
994.7715578017104
 13
0.0
 23
0.0
 14
10.0
 24
10.0
 15
10.0
 25
10.0
 16
0.0
 26
0.0
 36
1.0
 17
0.0
 27
0.0
 37
0.0
 40
353.0413192471125
 41
1.585635359116022
 42
50.0
 43
0.0
 44
0.0
 50
0.0
 51
0.0
 71
     0
 72
   100
 73
     1
 74
     3
 75
     0
 76
     0
 77
     0
 78
     0
  0
ENDTAB
  0
TABLE
  2
LTYPE
  5
5
330
0
100
AcDbSymbolTable
 70
     4
  0
LTYPE
  5
14
330
5
100
AcDbSymbolTableRecord
100
AcDbLinetypeTableRecord
  2
BYBLOCK
 70
     0
  3

 72
    65
 73
     0
 40
0.0
  0
LTYPE
  5
15
330
5
100
AcDbSymbolTableRecord
100
AcDbLinetypeTableRecord
  2
BYLAYER
 70
     0
  3

 72
    65
 73
     0
 40
0.0
  0
LTYPE
  5
16
330
5
100
AcDbSymbolTableRecord
100
AcDbLinetypeTableRecord
  2
CONTINUOUS
 70
     0
  3
Solid line
 72
    65
 73
     0
 40
0.0
  0
LTYPE
  5
2D
330
5
100
AcDbSymbolTableRecord
100
AcDbLinetypeTableRecord
  2
CENTER2
 70
     0
  3
Center (.5x) ___ _ ___ _ ___ _ ___ _ ___ _ ___
 72
    65
 73
     4
 40
28.57499999999999
 49
19.05
 74
     0
 49
-3.174999999999999
 74
     0
 49
3.174999999999999
 74
     0
 49
-3.174999999999999
 74
     0
  0
LTYPE
  5
2E
330
5
100
AcDbSymbolTableRecord
100
AcDbLinetypeTableRecord
  2
PHANTOM2
 70
     0
  3
Phantom (.5x) ___ _ _ ___ _ _ ___ _ _ ___ _ _
 72
    65
 73
     6
 40
31.75
 49
15.875
 74
     0
 49
-3.174999999999999
 74
     0
 49
3.174999999999999
 74
     0
 49
-3.174999999999999
 74
     0
 49
3.174999999999999
 74
     0
 49
-3.174999999999999
 74
     0
  0
LTYPE
  5
2F
330
5
100
AcDbSymbolTableRecord
100
AcDbLinetypeTableRecord
  2
HIDDEN2
 70
     0
  3
Hidden (.5x) _ _ _ _ _ _ _ _ _ _ _ _ _ _ _ _ _
 72
    65
 73
     2
 40
4.762499999999999
 49
3.174999999999999
 74
     0
 49
-1.587499999999999
 74
     0
  0
ENDTAB
  0
TABLE
  2
LAYER
  5
2
330
0
100
AcDbSymbolTable
 70
     8
  0
LAYER
  5
10
330
2
100
AcDbSymbolTableRecord
100
AcDbLayerTableRecord
  2
0
 70
     0
 62
     7
  6
CONTINUOUS
  0
LAYER
  5
30
330
2
100
AcDbSymbolTableRecord
100
AcDbLayerTableRecord
  2
CENTER
 70
     0
 62
     6
  6
CENTER2
  0
LAYER
  5
31
330
2
100
AcDbSymbolTableRecord
100
AcDbLayerTableRecord
  2
HIDDEN
 70
     0
 62
     5
  6
HIDDEN2
  0
LAYER
  5
33
330
2
100
AcDbSymbolTableRecord
100
AcDbLayerTableRecord
  2
DIM
 70
     0
 62
     2
  6
CONTINUOUS
  0
LAYER
  5
15D
330
2
100
AcDbSymbolTableRecord
100
AcDbLayerTableRecord
  2
DEFPOINTS
 70
     0
 62
     7
  6
CONTINUOUS
  0
LAYER
  5
2C4
330
2
100
AcDbSymbolTableRecord
100
AcDbLayerTableRecord
  2
1
 70
     0
 62
     1
  6
CONTINUOUS
  0
LAYER
  5
869
330
2
100
AcDbSymbolTableRecord
100
AcDbLayerTableRecord
  2
OBJECT
 70
     0
 62
     7
  6
CONTINUOUS
  0
LAYER
  5
B2D
330
2
100
AcDbSymbolTableRecord
100
AcDbLayerTableRecord
  2
LED素子
 70
     0
 62
    30
  6
CONTINUOUS
  0
ENDTAB
  0
TABLE
  2
STYLE
  5
3
330
0
100
AcDbSymbolTable
 70
     4
  0
STYLE
  5
11
330
3
100
AcDbSymbolTableRecord
100
AcDbTextStyleTableRecord
  2
STANDARD
 70
     0
 40
0.0
 41
1.0
 50
0.0
 71
     0
 42
10.0
  3
txt
  4

  0
STYLE
  5
2C
330
3
100
AcDbSymbolTableRecord
100
AcDbTextStyleTableRecord
  2

 70
     1
 40
0.0
 41
1.0
 50
0.0
 71
     0
 42
2.5
  3
ltypeshp.shx
  4

  0
STYLE
  5
6E
330
3
100
AcDbSymbolTableRecord
100
AcDbTextStyleTableRecord
  2
ADESK1
 70
     0
 40
0.0
 41
1.0
 50
0.0
 71
     0
 42
5.0
  3
romans
  4
bigfont
  0
STYLE
  5
6F
330
3
100
AcDbSymbolTableRecord
100
AcDbTextStyleTableRecord
  2
STYLE1
 70
     0
 40
0.0
 41
1.0
 50
0.0
 71
     0
 42
2.5
  3

  4

1001
ACAD
1000
MS PMincho
1071
    32786
  0
ENDTAB
  0
TABLE
  2
VIEW
  5
6
330
0
100
AcDbSymbolTable
 70
     0
  0
ENDTAB
  0
TABLE
  2
UCS
  5
7
330
0
100
AcDbSymbolTable
 70
     0
  0
ENDTAB
  0
TABLE
  2
APPID
  5
9
330
0
100
AcDbSymbolTable
 70
     1
  0
APPID
  5
12
330
9
100
AcDbSymbolTableRecord
100
AcDbRegAppTableRecord
  2
ACAD
 70
     0
  0
ENDTAB
  0
TABLE
  2
DIMSTYLE
  5
A
330
0
100
AcDbSymbolTable
 70
     4
  0
DIMSTYLE
105
27
330
A
100
AcDbSymbolTableRecord
100
AcDbDimStyleTableRecord
  2
ISO-25
 70
     0
  3

  4

  5

  6

  7

 40
1.0
 41
2.5
 42
0.625
 43
3.75
 44
1.25
 45
0.0
 46
0.0
 47
0.0
 48
0.0
140
2.5
141
2.5
142
0.0
143
0.03937007874016
144
1.0
145
0.0
146
1.0
147
0.625
 71
     0
 72
     0
 73
     0
 74
     0
 75
     0
 76
     0
 77
     1
 78
     8
170
     0
171
     3
172
     1
173
     0
174
     0
175
     0
176
     0
177
     0
178
     0
270
     2
271
     2
272
     2
273
     2
274
     3
340
11
275
     0
280
     0
281
     0
282
     0
283
     0
284
     8
285
     0
286
     0
287
     3
288
     0
  0
DIMSTYLE
105
70
330
A
100
AcDbSymbolTableRecord
100
AcDbDimStyleTableRecord
  2
STANDARD
 70
     0
  3

  4

  5
OPEN30
  6

  7

 40
1.0
 41
3.0
 42
0.0625
 43
0.38
 44
2.0
 45
0.0
 46
0.0
 47
0.0
 48
0.0
140
2.5
141
2.5
142
0.0
143
25.4
144
1.0
145
0.0
146
1.0
147
1.0
 71
     0
 72
     0
 73
     0
 74
     0
 75
     0
 76
     0
 77
     1
 78
     0
170
     0
171
     2
172
     0
173
     0
174
     0
175
     0
176
     0
177
     0
178
     0
270
     2
271
     1
272
     1
273
     2
274
     2
340
11
275
     0
280
     0
281
     0
282
     0
283
     1
284
     0
285
     0
286
     0
287
     0
288
     0
  0
DIMSTYLE
105
71
330
A
100
AcDbSymbolTableRecord
100
AcDbDimStyleTableRecord
  2
JIS
 70
     0
  3

  4

  5

  6

  7

 40
1.0
 41
2.5
 42
1.0
 43
7.0
 44
1.0
 45
0.0
 46
0.0
 47
0.0
 48
0.0
140
2.5
141
0.0
142
0.0
143
0.0394
144
1.0
145
0.0
146
1.0
147
0.0
 71
     0
 72
     0
 73
     0
 74
     0
 75
     0
 76
     0
 77
     1
 78
     8
170
     0
171
     2
172
     1
173
     0
174
     1
175
     1
176
     0
177
     0
178
     0
270
     2
271
     4
272
     4
273
     2
274
     2
340
11
275
     0
280
     0
281
     0
282
     0
283
     1
284
     0
285
     0
286
     0
287
     3
288
     0
  0
DIMSTYLE
105
624
330
A
100
AcDbSymbolTableRecord
100
AcDbDimStyleTableRecord
  2
STANDARD_WS
 70
     0
  3

  4

  5

  6

  7

 40
1.346801346801346
 41
2.5
 42
0.625
 43
3.75
 44
1.25
 45
0.0
 46
0.0
 47
0.0
 48
0.0
140
2.5
141
2.5
142
0.0
143
0.0394
144
1.0
145
0.0
146
1.0
147
0.625
 71
     0
 72
     0
 73
     0
 74
     0
 75
     0
 76
     0
 77
     1
 78
     8
170
     0
171
     4
172
     1
173
     0
174
     0
175
     0
176
     0
177
     0
178
     0
270
     2
271
     4
272
     4
273
     8
274
     4
340
11
275
     0
280
     0
281
     0
282
     0
283
     1
284
     0
285
     0
286
     0
287
     3
288
     0
  0
ENDTAB
  0
TABLE
  2
BLOCK_RECORD
  5
1
330
0
100
AcDbSymbolTable
 70
     3
  0
BLOCK_RECORD
  5
1F
102
{ACAD_XDICTIONARY
360
1015
102
}
330
1
100
AcDbSymbolTableRecord
100
AcDbBlockTableRecord
  2
*MODEL_SPACE
  0
BLOCK_RECORD
  5
1B
102
{ACAD_XDICTIONARY
360
1013
102
}
330
1
100
AcDbSymbolTableRecord
100
AcDbBlockTableRecord
  2
*PAPER_SPACE
  0
BLOCK_RECORD
  5
68
330
1
100
AcDbSymbolTableRecord
100
AcDbBlockTableRecord
  2
_OPEN30
  0
BLOCK_RECORD
  5
2C5
330
1
100
AcDbSymbolTableRecord
100
AcDbBlockTableRecord
  2
A$C51897F58
  0
ENDTAB
  0
ENDSEC
  0
SECTION
  2
BLOCKS
  0
BLOCK
  5
20
330
1F
100
AcDbEntity
  8
0
100
AcDbBlockBegin
  2
*MODEL_SPACE
 70
     0
 10
0.0
 20
0.0
 30
0.0
  3
*MODEL_SPACE
  1

  0
ENDBLK
  5
21
330
1F
100
AcDbEntity
  8
0
100
AcDbBlockEnd
  0
BLOCK
  5
1C
330
1B
100
AcDbEntity
 67
     1
  8
0
100
AcDbBlockBegin
  2
*PAPER_SPACE
 70
     0
 10
0.0
 20
0.0
 30
0.0
  3
*PAPER_SPACE
  1

  0
ENDBLK
  5
1D
330
1B
100
AcDbEntity
 67
     1
  8
0
100
AcDbBlockEnd
  0
BLOCK
  5
6C
330
68
100
AcDbEntity
  8
0
100
AcDbBlockBegin
  2
_OPEN30
 70
     0
 10
0.0
 20
0.0
 30
0.0
  3
_OPEN30
  1

  0
LINE
  5
69
330
68
100
AcDbEntity
  8
0
 62
     0
100
AcDbLine
 10
-1.0
 20
0.26794919
 30
0.0
 11
0.0
 21
0.0
 31
0.0
  0
LINE
  5
6A
330
68
100
AcDbEntity
  8
0
 62
     0
100
AcDbLine
 10
0.0
 20
0.0
 30
0.0
 11
-1.0
 21
-0.26794919
 31
0.0
  0
LINE
  5
6B
330
68
100
AcDbEntity
  8
0
 62
     0
100
AcDbLine
 10
0.0
 20
0.0
 30
0.0
 11
-1.0
 21
0.0
 31
0.0
  0
ENDBLK
  5
6D
330
68
100
AcDbEntity
  8
0
100
AcDbBlockEnd
  0
BLOCK
  5
2FA
330
2C5
100
AcDbEntity
  8
0
 48
0.5
100
AcDbBlockBegin
  2
A$C51897F58
 70
     0
 10
0.0
 20
0.0
 30
0.0
  3
A$C51897F58
  1

  0
LINE
  5
2C6
330
2C5
100
AcDbEntity
  8
1
100
AcDbLine
 10
76.2952075187882
 20
104.8488029131382
 30
-0.0000000000046929
 11
76.29520751878797
 21
10.84880291313834
 31
-0.0000000000046929
  0
LINE
  5
2C7
330
2C5
100
AcDbEntity
  8
1
100
AcDbLine
 10
12.29520751878831
 20
104.8488029131384
 30
-0.0000000000044971
 11
12.29520751878797
 21
10.84880291313845
 31
-0.0000000000044971
  0
LINE
  5
2C8
330
2C5
100
AcDbEntity
  8
CENTER
  6
CENTER2
 48
0.3
100
AcDbLine
 10
44.29520751878832
 20
112.8488029131383
 30
-0.000000000004595
 11
44.29520751878899
 21
-0.0000003467640397
 31
-0.000000000004595
  0
LINE
  5
2C9
330
2C5
100
AcDbEntity
  8
1
100
AcDbLine
 10
84.2952075187882
 20
108.8488029131382
 30
-0.0000000000047038
 11
84.29520751878797
 21
6.848802913138342
 31
-0.0000000000047038
  0
LINE
  5
2CA
330
2C5
100
AcDbEntity
  8
1
100
AcDbLine
 10
4.295207518788316
 20
108.8488029131384
 30
-0.0000000000044862
 11
4.295207518787975
 21
6.848802913138456
 31
-0.0000000000044862
  0
LINE
  5
2CB
330
2C5
100
AcDbEntity
  8
1
100
AcDbLine
 10
8.295207518788316
 20
108.8488029131384
 30
-0.0000000000044916
 11
8.295207518787975
 21
6.848802913138456
 31
-0.0000000000044916
  0
LINE
  5
2CC
330
2C5
100
AcDbEntity
  8
1
100
AcDbLine
 10
80.2952075187882
 20
108.8488029131382
 30
-0.0000000000046984
 11
80.29520751878797
 21
6.848802913138342
 31
-0.0000000000046984
  0
LINE
  5
2CD
330
2C5
100
AcDbEntity
  8
1
100
AcDbLine
 10
76.29520751878803
 20
10.84880291313835
 30
-0.000000000004682
 11
12.29520751878797
 21
10.84880291313845
 31
-0.0000000000045079
  0
LINE
  5
2CE
330
2C5
100
AcDbEntity
  8
1
100
AcDbLine
 10
80.29520751878797
 20
2.848802913138342
 30
-0.0000000000046929
 11
8.295207518787975
 21
2.848802913138456
 31
-0.0000000000044971
  0
LINE
  5
2CF
330
2C5
100
AcDbEntity
  8
1
100
AcDbLine
 10
80.29520751878797
 20
6.848802913138342
 30
-0.0000000000046929
 11
8.295207518787975
 21
6.848802913138456
 31
-0.0000000000044971
  0
ARC
  5
2D0
330
2C5
100
AcDbEntity
  8
1
100
AcDbCircle
 10
8.295207518787975
 20
6.848802913138484
 30
-0.0000000000001732
 40
4.0
100
AcDbArc
 50
180.0
 51
270.0
  0
ARC
  5
2D1
330
2C5
100
AcDbEntity
  8
1
100
AcDbCircle
 10
80.29520751878797
 20
6.848802913138371
 30
-0.0000000000001732
 40
4.0
100
AcDbArc
 50
270.0
 51
0.0
  0
LINE
  5
2D2
330
2C5
100
AcDbEntity
  8
CENTER
  6
CENTER2
 48
0.3
100
AcDbLine
 10
0.0000003224429577
 20
57.84880291313846
 30
0.0000000000003685
 11
88.85278162162448
 21
57.84880291313837
 31
0.0000000000003836
  0
LINE
  5
2D3
330
2C5
100
AcDbEntity
  8
1
100
AcDbLine
 10
34.2952075187882
 20
112.8488029131383
 30
-0.0000000000045678
 11
8.295207518788316
 21
112.8488029131384
 31
-0.0000000000044971
  0
LINE
  5
2D4
330
2C5
100
AcDbEntity
  8
1
100
AcDbLine
 10
34.2952075187882
 20
108.8488029131383
 30
-0.0000000000045678
 11
8.295207518788316
 21
108.8488029131384
 31
-0.0000000000044971
  0
LINE
  5
2D5
330
2C5
100
AcDbEntity
  8
1
100
AcDbLine
 10
76.2952075187882
 20
104.8488029131382
 30
-0.000000000004682
 11
12.29520751878831
 21
104.8488029131384
 31
-0.0000000000045079
  0
ARC
  5
2D6
330
2C5
100
AcDbEntity
  8
1
100
AcDbCircle
 10
8.295207518788316
 20
108.8488029131384
 30
-0.0000000000001732
 40
4.0
100
AcDbArc
 50
90.0
 51
180.0
  0
LINE
  5
2D7
330
2C5
100
AcDbEntity
  8
1
 48
0.2
100
AcDbLine
 10
54.2952075187882
 20
112.8488029131382
 30
-0.0000000000046086
 11
54.2952075187882
 21
103.8488029131382
 31
-0.0000000000046086
  0
LINE
  5
2D8
330
2C5
100
AcDbEntity
  8
1
 48
0.2
100
AcDbLine
 10
34.2952075187882
 20
112.8488029131383
 30
-0.0000000000045814
 11
34.2952075187882
 21
103.8488029131383
 31
-0.0000000000045814
  0
LINE
  5
2D9
330
2C5
100
AcDbEntity
  8
1
100
AcDbLine
 10
54.2952075187882
 20
103.8488029131382
 30
-0.0000000000046222
 11
34.2952075187882
 21
103.8488029131383
 31
-0.0000000000045678
  0
LINE
  5
2DA
330
2C5
100
AcDbEntity
  8
1
100
AcDbLine
 10
80.2952075187882
 20
112.8488029131382
 30
-0.0000000000046929
 11
54.2952075187882
 21
112.8488029131383
 31
-0.0000000000046222
  0
LINE
  5
2DB
330
2C5
100
AcDbEntity
  8
1
100
AcDbLine
 10
80.2952075187882
 20
108.8488029131382
 30
-0.0000000000046929
 11
54.2952075187882
 21
108.8488029131383
 31
-0.0000000000046222
  0
ARC
  5
2DC
330
2C5
100
AcDbEntity
  8
1
100
AcDbCircle
 10
80.2952075187882
 20
108.8488029131382
 30
-0.0000000000001732
 40
4.0
100
AcDbArc
 50
0.0
 51
90.0
  0
LINE
  5
2DD
330
2C5
100
AcDbEntity
  8
1
 48
0.3
100
AcDbLine
 10
54.24850631988579
 20
148.013008971311
 30
0.0000000000002508
 11
54.24850631988559
 21
158.013008971311
 31
0.0000000000002508
  0
LINE
  5
2DE
330
2C5
100
AcDbEntity
  8
1
 48
0.3
100
AcDbLine
 10
34.24850631988576
 20
148.0130089713107
 30
0.000000000000278
 11
34.24850631988559
 21
158.0130089713107
 31
0.000000000000278
  0
LINE
  5
2DF
330
2C5
100
AcDbEntity
  8
CENTER
  6
CENTER2
 48
0.3
100
AcDbLine
 10
44.24850631988587
 20
142.95532547971
 30
0.0000000000002644
 11
44.24850631988554
 21
161.5087185147079
 31
0.0000000000002644
  0
LINE
  5
2E0
330
2C5
100
AcDbEntity
  8
1
100
AcDbLine
 10
84.2485063198856
 20
154.0130089713114
 30
0.0000000000002644
 11
84.2485063198856
 21
157.0130089713114
 31
0.0000000000002644
  0
LINE
  5
2E1
330
2C5
100
AcDbEntity
  8
1
100
AcDbLine
 10
4.248506319885592
 20
154.0130089713103
 30
0.0000000000002644
 11
4.248506319885592
 21
157.0130089713103
 31
0.0000000000002644
  0
LINE
  5
2E2
330
2C5
100
AcDbEntity
  8
1
100
AcDbLine
 10
8.248506319885734
 20
148.0130089713103
 30
0.0000000000002644
 11
80.24850631988574
 21
148.0130089713114
 31
0.0000000000002644
  0
LINE
  5
2E3
330
2C5
100
AcDbEntity
  8
1
100
AcDbLine
 10
4.248506319885578
 20
154.0130089713103
 30
0.0000000000002644
 11
84.2485063198856
 21
154.0130089713114
 31
0.0000000000002644
  0
LINE
  5
2E4
330
2C5
100
AcDbEntity
  8
1
100
AcDbLine
 10
8.248506319885748
 20
148.0130089713104
 30
0.0000000000002589
 11
8.248506319885592
 21
154.0130089713103
 31
0.0000000000002589
  0
LINE
  5
2E5
330
2C5
100
AcDbEntity
  8
HIDDEN
100
AcDbLine
 10
12.24850631988576
 20
148.0130089713104
 30
0.0000000000002535
 11
12.24850631988559
 21
154.0130089713104
 31
0.0000000000002535
  0
LINE
  5
2E6
330
2C5
100
AcDbEntity
  8
HIDDEN
  6
HIDDEN2
 48
0.3
100
AcDbLine
 10
34.24850631988565
 20
155.0130089713107
 30
0.0000000000002644
 11
54.24850631988568
 21
155.013008971311
 31
0.0000000000002644
  0
LINE
  5
2E7
330
2C5
100
AcDbEntity
  8
1
100
AcDbLine
 10
80.24850631988575
 20
148.0130089713114
 30
0.0000000000002698
 11
80.24850631988559
 21
154.0130089713114
 31
0.0000000000002698
  0
LINE
  5
2E8
330
2C5
100
AcDbEntity
  8
HIDDEN
100
AcDbLine
 10
76.24850631988576
 20
148.0130089713113
 30
0.0000000000002753
 11
76.24850631988559
 21
154.0130089713113
 31
0.0000000000002753
  0
LINE
  5
2E9
330
2C5
100
AcDbEntity
  8
1
100
AcDbLine
 10
5.248506319885578
 20
158.0130089713103
 30
0.0000000000002644
 11
83.24850631988557
 21
158.0130089713114
 31
0.0000000000002644
  0
ARC
  5
2EA
330
2C5
100
AcDbEntity
  8
1
100
AcDbCircle
 10
5.248506319885592
 20
157.0130089713103
 30
0.0000000000002644
 40
1.0
100
AcDbArc
 50
90.00000000000081
 51
180.0
  0
ARC
  5
2EB
330
2C5
100
AcDbEntity
  8
1
100
AcDbCircle
 10
83.24850631988558
 20
157.0130089713114
 30
0.0000000000002644
 40
1.0
100
AcDbArc
 50
0.0
 51
90.00000000000081
  0
LINE
  5
2EC
330
2C5
100
AcDbEntity
  8
1
100
AcDbLine
 10
156.132279605157
 20
108.8137431284333
 30
-0.0000000000003743
 11
156.1322796051574
 21
6.883862697845941
 31
-0.0000000000003743
  0
LINE
  5
2ED
330
2C5
100
AcDbEntity
  8
1
100
AcDbLine
 10
162.132279605157
 20
112.8488029131393
 30
-0.0000000000003824
 11
162.1322796051574
 21
2.848802913139323
 31
-0.0000000000003824
  0
LINE
  5
2EE
330
2C5
100
AcDbEntity
  8
1
100
AcDbLine
 10
166.1322796051569
 20
111.8488029131393
 30
-0.0000000000003879
 11
166.1322796051574
 21
3.848802913139323
 31
-0.0000000000003879
  0
LINE
  5
2EF
330
2C5
100
AcDbEntity
  8
1
100
AcDbLine
 10
162.1322796051574
 20
2.848802913139323
 30
-0.0000000000003824
 11
165.1322796051574
 21
2.848802913139323
 31
-0.0000000000003865
  0
LINE
  5
2F0
330
2C5
100
AcDbEntity
  8
HIDDEN
 48
0.2
100
AcDbLine
 10
158.1322796051571
 20
10.88386269784594
 30
-0.000000000000377
 11
166.1322796051574
 21
10.88386269784594
 31
-0.0000000000003879
  0
LINE
  5
2F1
330
2C5
100
AcDbEntity
  8
1
100
AcDbLine
 10
156.1322796051574
 20
6.883862697845941
 30
-0.0000000000003743
 11
162.132279605157
 21
6.883862697845941
 31
-0.0000000000003824
  0
LINE
  5
2F2
330
2C5
100
AcDbEntity
  8
CENTER
  6
CENTER2
 48
0.3
100
AcDbLine
 10
153.5094648887696
 20
57.84880291313934
 30
0.0000000000001597
 11
177.1636479841034
 21
57.84880291313888
 31
0.0000000000002635
  0
ARC
  5
2F3
330
2C5
100
AcDbEntity
  8
1
100
AcDbCircle
 10
165.1322796051574
 20
3.848802913139323
 30
0.0
 40
1.0
100
AcDbArc
 50
270.0
 51
0.0
  0
LINE
  5
2F4
330
2C5
100
AcDbEntity
  8
HIDDEN
 48
0.2
100
AcDbLine
 10
163.3393863863436
 20
104.8137431284333
 30
-0.0000000000003841
 11
166.132279605157
 21
104.8137431284334
 31
-0.0000000000003879
  0
LINE
  5
2F5
330
2C5
100
AcDbEntity
  8
HIDDEN
 48
0.2
100
AcDbLine
 10
158.1322796051571
 20
104.8137431284333
 30
-0.000000000000377
 11
162.132279605157
 21
104.8137431284333
 31
-0.0000000000003824
  0
LINE
  5
2F6
330
2C5
100
AcDbEntity
  8
HIDDEN
  6
HIDDEN2
 48
0.3
100
AcDbLine
 10
162.132279605157
 20
103.6066363472467
 30
-0.0000000000003824
 11
163.3393863863436
 21
104.8137431284333
 31
-0.0000000000003841
  0
LINE
  5
2F7
330
2C5
100
AcDbEntity
  8
1
100
AcDbLine
 10
162.132279605157
 20
112.8488029131393
 30
-0.0000000000003824
 11
165.1322796051569
 21
112.8488029131393
 31
-0.0000000000003865
  0
LINE
  5
2F8
330
2C5
100
AcDbEntity
  8
1
100
AcDbLine
 10
156.132279605157
 20
108.8137431284333
 30
-0.0000000000003743
 11
162.132279605157
 21
108.8137431284333
 31
-0.0000000000003824
  0
ARC
  5
2F9
330
2C5
100
AcDbEntity
  8
1
100
AcDbCircle
 10
165.1322796051569
 20
111.8488029131393
 30
0.0
 40
1.0
100
AcDbArc
 50
0.0
 51
90.0
  0
ENDBLK
  5
2FB
330
2C5
100
AcDbEntity
  8
0
 48
0.5
100
AcDbBlockEnd
  0
ENDSEC
  0
SECTION
  2
ENTITIES
  0
ARC
  5
7F8
330
1F
100
AcDbEntity
  8
OBJECT
100
AcDbCircle
 10
2402.656182957622
 20
1107.642747400598
 30
0.0
 40
32.21889944227084
100
AcDbArc
 50
0.0000219368342201
 51
179.9999780631397
  0
ARC
  5
80D
330
1F
100
AcDbEntity
  8
OBJECT
100
AcDbCircle
 10
2402.656182957622
 20
1107.642773830994
 30
0.0
 40
32.21889944227145
100
AcDbArc
 50
180.0000250650621
 51
359.9999749349118
  0
ARC
  5
80E
330
1F
100
AcDbEntity
  8
OBJECT
 48
0.5
100
AcDbCircle
 10
2402.649721006552
 20
916.9157225993354
 30
0.0
 40
25.25000000000022
100
AcDbArc
 50
258.5788137249967
 51
281.4211862750032
  0
LINE
  5
80F
330
1F
100
AcDbEntity
  8
OBJECT
 48
0.5
100
AcDbLine
 10
2402.649721006552
 20
892.1657225993349
 30
0.0
 11
2397.649721006551
 21
892.1657225993349
 31
0.0
  0
LINE
  5
810
330
1F
100
AcDbEntity
  8
OBJECT
 48
0.5
100
AcDbLine
 10
2390.358544602035
 20
902.1249330344726
 30
0.0
 11
2414.729176497176
 21
904.8799890016816
 31
0.0
  0
LINE
  5
811
330
1F
100
AcDbEntity
  8
OBJECT
 48
0.5
100
AcDbLine
 10
2390.563882649757
 20
900.2762845288984
 30
0.0
 11
2414.954274141388
 21
903.0335742828411
 31
0.0
  0
LINE
  5
812
330
1F
100
AcDbEntity
  8
OBJECT
 48
0.5
100
AcDbLine
 10
2390.649290019707
 20
903.8797481696802
 30
0.0
 11
2414.788645143862
 21
906.6086587151898
 31
0.0
  0
LINE
  5
813
330
1F
100
AcDbEntity
  8
OBJECT
 48
0.5
100
AcDbLine
 10
2390.202756959104
 20
905.7011300142031
 30
0.0
 11
2414.832285412528
 21
908.485453770235
 31
0.0
  0
LINE
  5
814
330
1F
100
AcDbEntity
  8
OBJECT
 48
0.5
100
AcDbLine
 10
2390.487016972789
 20
907.7477505958331
 30
0.0
 11
2415.074023461795
 21
910.5272673205041
 31
0.0
  0
LINE
  5
815
330
1F
100
AcDbEntity
  8
OBJECT
 48
0.5
100
AcDbLine
 10
2390.201297701999
 20
911.668339035482
 30
0.0
 11
2408.141263789346
 21
911.668339035482
 31
0.0
  0
LINE
  5
816
330
1F
100
AcDbEntity
  8
OBJECT
 48
0.5
100
AcDbLine
 10
2390.573984052696
 20
909.6823897554495
 30
0.0
 11
2408.141263789346
 21
911.668339035482
 31
0.0
  0
LINE
  5
817
330
1F
100
AcDbEntity
  8
OBJECT
 48
0.5
100
AcDbLine
 10
2389.649721006552
 20
916.6657225993349
 30
0.0
 11
2415.649721006551
 21
916.6657225993349
 31
0.0
  0
LINE
  5
818
330
1F
100
AcDbEntity
  8
OBJECT
 48
0.5
100
AcDbLine
 10
2414.399721006553
 20
899.1657225993348
 30
0.0
 11
2398.69212910672
 21
899.1657225993348
 31
0.0
  0
LINE
  5
819
330
1F
100
AcDbEntity
  8
OBJECT
 48
0.5
100
AcDbLine
 10
2398.692129106721
 20
899.1657225993348
 30
0.0
 11
2414.946173120028
 21
901.0032129501315
 31
0.0
  0
LINE
  5
81A
330
1F
100
AcDbEntity
  8
OBJECT
 48
0.5
100
AcDbLine
 10
2394.899721006551
 20
895.6657225993344
 30
0.0
 11
2410.149721006551
 21
895.665722599335
 31
0.0
  0
ARC
  5
81B
330
1F
100
AcDbEntity
  8
OBJECT
 48
0.5
100
AcDbCircle
 10
2390.649721006551
 20
901.2840239435513
 30
0.0
 40
1.0
100
AcDbArc
 50
122.7637577575323
 51
237.2362422416801
  0
ARC
  5
81C
330
1F
100
AcDbEntity
  8
OBJECT
 48
0.5
100
AcDbCircle
 10
2390.649721006551
 20
904.9840239435511
 30
0.0
 40
1.0
100
AcDbArc
 50
122.7637577575323
 51
237.2362422416801
  0
ARC
  5
81D
330
1F
100
AcDbEntity
  8
OBJECT
 48
0.5
100
AcDbCircle
 10
2389.459132916615
 20
910.5340239435786
 30
0.0
 40
1.199999999954223
100
AcDbArc
 50
302.7637577575323
 51
57.23624224190404
  0
ARC
  5
81E
330
1F
100
AcDbEntity
  8
OBJECT
 48
0.5
100
AcDbCircle
 10
2389.459132916615
 20
906.8340239435787
 30
0.0
 40
1.199999999954223
100
AcDbArc
 50
302.7637577575323
 51
57.23624224168019
  0
ARC
  5
81F
330
1F
100
AcDbEntity
  8
OBJECT
 48
0.5
100
AcDbCircle
 10
2390.649721006551
 20
908.6840239435515
 30
0.0
 40
1.0
100
AcDbArc
 50
122.7637577575323
 51
237.2362422416801
  0
ARC
  5
820
330
1F
100
AcDbEntity
  8
OBJECT
 48
0.5
100
AcDbCircle
 10
2390.649721006551
 20
912.3840239435658
 30
0.0
 40
1.0
100
AcDbArc
 50
179.9999999999739
 51
237.236242241904
  0
ARC
  5
821
330
1F
100
AcDbEntity
  8
OBJECT
 48
0.5
100
AcDbCircle
 10
2389.459132916615
 20
903.1340239435785
 30
0.0
 40
1.199999999954223
100
AcDbArc
 50
302.7637577575323
 51
57.23624224168019
  0
LINE
  5
822
330
1F
100
AcDbEntity
  8
OBJECT
 48
0.5
100
AcDbLine
 10
2389.649721006552
 20
916.6657225993349
 30
0.0
 11
2389.649721006552
 21
912.3840239435658
 31
0.0
  0
ARC
  5
823
330
1F
100
AcDbEntity
  8
OBJECT
 48
0.5
100
AcDbCircle
 10
2394.899721006551
 20
898.6657225993344
 30
0.0
 40
3.0
100
AcDbArc
 50
216.8698976458335
 51
270.0
  0
ARC
  5
824
330
1F
100
AcDbEntity
  8
OBJECT
 48
0.5
100
AcDbCircle
 10
2389.459132916615
 20
899.4340239435782
 30
0.0
 40
1.199999999954223
100
AcDbArc
 50
6.160444900309663
 51
57.23624224168019
  0
ARC
  5
825
330
1F
100
AcDbEntity
  8
OBJECT
 48
0.5
100
AcDbCircle
 10
2391.646428546262
 20
899.6701125463873
 30
0.0
 40
1.0
100
AcDbArc
 50
186.1604449003096
 51
216.8698976458335
  0
LINE
  5
826
330
1F
100
AcDbEntity
  8
OBJECT
 48
0.5
100
AcDbLine
 10
2390.846428546262
 20
899.070112546387
 30
0.0
 11
2392.499721006552
 21
896.8657225993347
 31
0.0
  0
LINE
  5
827
330
1F
100
AcDbEntity
  8
OBJECT
 48
0.5
100
AcDbLine
 10
2397.649721006551
 20
892.1657225993349
 30
0.0
 11
2395.149721006552
 21
895.665722599335
 31
0.0
  0
ARC
  5
828
330
1F
100
AcDbEntity
  8
OBJECT
 48
0.5
100
AcDbCircle
 10
2415.840309096488
 20
902.0157225993621
 30
0.0
 40
1.199999999954223
100
AcDbArc
 50
122.7637577583197
 51
237.2362422424676
  0
ARC
  5
82A
330
1F
100
AcDbEntity
  8
OBJECT
 48
0.5
100
AcDbCircle
 10
2415.840309096488
 20
905.7157225993618
 30
0.0
 40
1.199999999954223
100
AcDbArc
 50
122.7637577583197
 51
237.2362422424676
  0
ARC
  5
82B
330
1F
100
AcDbEntity
  8
OBJECT
 48
0.5
100
AcDbCircle
 10
2415.840309096488
 20
909.4157225993622
 30
0.0
 40
1.199999999954223
100
AcDbArc
 50
122.7637577580959
 51
237.2362422424676
  0
ARC
  5
82C
330
1F
100
AcDbEntity
  8
OBJECT
 48
0.5
100
AcDbCircle
 10
2414.649721006552
 20
907.5657225993349
 30
0.0
 40
1.0
100
AcDbArc
 50
302.7637577583198
 51
57.23624224246764
  0
ARC
  5
82D
330
1F
100
AcDbEntity
  8
OBJECT
 48
0.5
100
AcDbCircle
 10
2414.649721006552
 20
911.2657225993494
 30
0.0
 40
1.0
100
AcDbArc
 50
302.7637577580958
 51
0.0
  0
ARC
  5
82E
330
1F
100
AcDbEntity
  8
OBJECT
 48
0.5
100
AcDbCircle
 10
2414.649721006552
 20
903.8657225993352
 30
0.0
 40
1.0
100
AcDbArc
 50
302.7637577583198
 51
57.23624224246764
  0
LINE
  5
82F
330
1F
100
AcDbEntity
  8
OBJECT
 48
0.5
100
AcDbLine
 10
2415.649721006551
 20
916.6657225993354
 30
0.0
 11
2415.649721006551
 21
911.2657225993494
 31
0.0
  0
LINE
  5
830
330
1F
100
AcDbEntity
  8
OBJECT
 48
0.5
100
AcDbLine
 10
2414.524721006552
 20
899.1657225993348
 30
0.0
 11
2414.649721006552
 21
899.1657225993348
 31
0.0
  0
ARC
  5
831
330
1F
100
AcDbEntity
  8
OBJECT
 48
0.5
100
AcDbCircle
 10
2414.649721006552
 20
900.165722599335
 30
0.0
 40
1.0
100
AcDbArc
 50
270.0
 51
57.23624224246764
  0
ARC
  5
832
330
1F
100
AcDbEntity
  8
OBJECT
 48
0.5
100
AcDbCircle
 10
2410.149721006551
 20
898.6657225993353
 30
0.0
 40
3.0
100
AcDbArc
 50
270.0
 51
323.1301023541585
  0
LINE
  5
833
330
1F
100
AcDbEntity
  8
OBJECT
 48
0.5
100
AcDbLine
 10
2414.274721006552
 20
899.1657225993348
 30
0.0
 11
2412.549721006552
 21
896.8657225993347
 31
0.0
  0
LINE
  5
834
330
1F
100
AcDbEntity
  8
OBJECT
 48
0.5
100
AcDbLine
 10
2402.649721006552
 20
892.1657225993349
 30
0.0
 11
2407.649721006551
 21
892.1657225993349
 31
0.0
  0
LINE
  5
835
330
1F
100
AcDbEntity
  8
OBJECT
 48
0.5
100
AcDbLine
 10
2407.649721006551
 20
892.1657225993349
 30
0.0
 11
2410.149721006551
 21
895.665722599335
 31
0.0
  0
LINE
  5
868
330
1F
100
AcDbEntity
  8
OBJECT
 48
0.5
100
AcDbLine
 10
2434.920196297724
 20
1001.641223401229
 30
0.0
 11
2419.699569068462
 21
922.9708941877811
 31
0.0
  0
ARC
  5
86C
330
1F
100
AcDbEntity
  8
OBJECT
 48
0.5
100
AcDbCircle
 10
2406.500855742403
 20
928.5320005945937
 30
0.0
 40
14.98366741096022
100
AcDbArc
 50
307.6321170367562
 51
312.7165141826785
  0
ARC
  5
888
330
1F
100
AcDbEntity
  8
OBJECT
 48
0.5
100
AcDbCircle
 10
2409.88163349919
 20
924.8704049557522
 30
0.0
 40
10.0
100
AcDbArc
 50
312.7165141826787
 51
349.0500708886569
  0
LINE
  5
88E
330
1F
100
AcDbEntity
  8
OBJECT
 48
0.5
100
AcDbLine
 10
2411.922953253627
 20
1032.386890434632
 30
0.0
 11
2418.793046302418
 21
1029.93023211937
 31
0.0
  0
LINE
  5
88F
330
1F
100
AcDbEntity
  8
OBJECT
 48
0.5
100
AcDbLine
 10
2406.861542413539
 20
1035.29069807863
 30
0.0
 11
2407.695586655816
 21
1034.66366759726
 31
0.0
  0
ARC
  5
8BB
330
1F
100
AcDbEntity
  8
OBJECT
 48
0.5
100
AcDbCircle
 10
2402.655116627192
 20
1029.69552318378
 30
0.0
 40
7.0
100
AcDbArc
 50
53.06432930447392
 51
126.9302005223745
  0
ARC
  5
8C2
330
1F
100
AcDbEntity
  8
OBJECT
 48
0.5
100
AcDbCircle
 10
2417.310274167465
 20
1047.452638785488
 30
0.0
 40
16.0
100
AcDbArc
 50
233.0643293044731
 51
250.3235928909213
  0
ARC
  5
8CB
330
1F
100
AcDbEntity
  8
OBJECT
 48
0.5
100
AcDbCircle
 10
2410.375357374546
 20
1006.390000321157
 30
0.0
 40
25.0
100
AcDbArc
 50
349.050070888656
 51
70.32359289092124
  0
LINE
  5
8CE
330
1F
100
AcDbEntity
  8
OBJECT
 48
0.5
100
AcDbLine
 10
2370.392169792628
 20
1001.641223401229
 30
0.0
 11
2385.612797021891
 21
922.9708941877811
 31
0.0
  0
LINE
  5
8CF
330
1F
100
AcDbEntity
  8
OBJECT
 48
0.5
100
AcDbLine
 10
2393.389412836724
 20
1032.386890434632
 30
0.0
 11
2386.519319787933
 21
1029.93023211937
 31
0.0
  0
ARC
  5
8D0
330
1F
100
AcDbEntity
  8
OBJECT
 48
0.5
100
AcDbCircle
 10
2394.937008715805
 20
1006.390000321157
 30
0.0
 40
25.0
100
AcDbArc
 50
109.6764071090792
 51
190.9499291113444
  0
ARC
  5
8D3
330
1F
100
AcDbEntity
  8
OBJECT
 48
0.5
100
AcDbCircle
 10
2398.811510347949
 20
928.5320005945937
 30
0.0
 40
14.98366741096022
100
AcDbArc
 50
227.2834858173218
 51
232.3678829632442
  0
ARC
  5
8D6
330
1F
100
AcDbEntity
  8
OBJECT
 48
0.5
100
AcDbCircle
 10
2395.430732591161
 20
924.8704049557522
 30
0.0
 40
10.0
100
AcDbArc
 50
190.9499291113436
 51
227.2834858173218
  0
ARC
  5
8D9
330
1F
100
AcDbEntity
  8
OBJECT
 48
0.5
100
AcDbCircle
 10
2388.002091922885
 20
1047.452638785488
 30
0.0
 40
16.0
100
AcDbArc
 50
289.6764071090792
 51
306.9356706955273
  0
LINE
  5
8DA
330
1F
100
AcDbEntity
  8
OBJECT
 48
0.5
100
AcDbLine
 10
2398.450823676813
 20
1035.29069807863
 30
0.0
 11
2397.616779434535
 21
1034.66366759726
 31
0.0
  0
LINE
  5
B7F
330
1F
100
AcDbEntity
  8
LED素子
 48
0.5
100
AcDbLine
 10
2403.149721006551
 20
969.6657225993348
 30
0.0
 11
2403.149721006551
 21
1003.665722599335
 31
0.0
  0
LINE
  5
B80
330
1F
100
AcDbEntity
  8
LED素子
 48
0.5
100
AcDbLine
 10
2402.149721006551
 20
969.6657225993353
 30
0.0
 11
2402.149721006551
 21
1003.665722599335
 31
0.0
  0
LINE
  5
B81
330
1F
100
AcDbEntity
  8
LED素子
 48
0.5
100
AcDbLine
 10
2391.543119288753
 20
969.6657225993353
 30
0.0
 11
2391.543119288753
 21
1003.665722599335
 31
0.0
  0
LINE
  5
B82
330
1F
100
AcDbEntity
  8
LED素子
 48
0.5
100
AcDbLine
 10
2392.543119288753
 20
969.6657225993348
 30
0.0
 11
2392.543119288753
 21
1003.665722599334
 31
0.0
  0
LINE
  5
B83
330
1F
100
AcDbEntity
  8
LED素子
 48
0.5
100
AcDbLine
 10
2388.149721006552
 20
969.6657225993348
 30
0.0
 11
2388.149721006552
 21
1003.665722599335
 31
0.0
  0
LINE
  5
B84
330
1F
100
AcDbEntity
  8
LED素子
 48
0.5
100
AcDbLine
 10
2387.149721006551
 20
969.6657225993353
 30
0.0
 11
2387.149721006551
 21
1003.665722599335
 31
0.0
  0
LINE
  5
B85
330
1F
100
AcDbEntity
  8
LED素子
 48
0.5
100
AcDbLine
 10
2402.149721006551
 20
1003.665722599334
 30
0.0
 11
2403.149721006551
 21
1003.665722599335
 31
0.0
  0
LINE
  5
B86
330
1F
100
AcDbEntity
  8
LED素子
 48
0.5
100
AcDbLine
 10
2391.543119288753
 20
1003.665722599334
 30
0.0
 11
2392.543119288753
 21
1003.665722599334
 31
0.0
  0
LINE
  5
B87
330
1F
100
AcDbEntity
  8
LED素子
 48
0.5
100
AcDbLine
 10
2387.149721006552
 20
1003.665722599334
 30
0.0
 11
2388.149721006552
 21
1003.665722599334
 31
0.0
  0
LINE
  5
B88
330
1F
100
AcDbEntity
  8
LED素子
 48
0.5
100
AcDbLine
 10
2402.149721006551
 20
969.6657225993345
 30
0.0
 11
2403.149721006551
 21
969.6657225993345
 31
0.0
  0
LINE
  5
B89
330
1F
100
AcDbEntity
  8
LED素子
 48
0.5
100
AcDbLine
 10
2391.543119288753
 20
969.6657225993345
 30
0.0
 11
2392.543119288753
 21
969.6657225993345
 31
0.0
  0
LINE
  5
B8A
330
1F
100
AcDbEntity
  8
LED素子
 48
0.5
100
AcDbLine
 10
2387.149721006552
 20
969.6657225993348
 30
0.0
 11
2388.149721006552
 21
969.6657225993345
 31
0.0
  0
LINE
  5
B8B
330
1F
100
AcDbEntity
  8
LED素子
 48
0.5
100
AcDbLine
 10
2418.149721006551
 20
969.6657225993348
 30
0.0
 11
2418.149721006551
 21
1003.665722599335
 31
0.0
  0
LINE
  5
B8C
330
1F
100
AcDbEntity
  8
LED素子
 48
0.5
100
AcDbLine
 10
2413.75632272435
 20
969.6657225993348
 30
0.0
 11
2413.75632272435
 21
1003.665722599334
 31
0.0
  0
LINE
  5
B8D
330
1F
100
AcDbEntity
  8
LED素子
 48
0.5
100
AcDbLine
 10
2412.756322724349
 20
969.6657225993353
 30
0.0
 11
2412.75632272435
 21
1003.665722599335
 31
0.0
  0
LINE
  5
B8E
330
1F
100
AcDbEntity
  8
LED素子
 48
0.5
100
AcDbLine
 10
2417.149721006552
 20
969.6657225993353
 30
0.0
 11
2417.149721006552
 21
1003.665722599335
 31
0.0
  0
LINE
  5
B8F
330
1F
100
AcDbEntity
  8
LED素子
 48
0.5
100
AcDbLine
 10
2417.149721006552
 20
1003.665722599335
 30
0.0
 11
2418.149721006551
 21
1003.665722599335
 31
0.0
  0
LINE
  5
B90
330
1F
100
AcDbEntity
  8
LED素子
 48
0.5
100
AcDbLine
 10
2417.149721006552
 20
969.6657225993348
 30
0.0
 11
2418.149721006551
 21
969.6657225993348
 31
0.0
  0
LINE
  5
B91
330
1F
100
AcDbEntity
  8
LED素子
 48
0.5
100
AcDbLine
 10
2412.756322724349
 20
969.6657225993345
 30
0.0
 11
2413.75632272435
 21
969.6657225993348
 31
0.0
  0
CIRCLE
  5
B94
330
1F
100
AcDbEntity
  8
LED素子
 48
0.5
100
AcDbCircle
 10
2402.656179814155
 20
1122.642760737974
 30
0.0
 40
0.5
  0
CIRCLE
  5
B95
330
1F
100
AcDbEntity
  8
LED素子
 48
0.5
100
AcDbCircle
 10
2392.049578096357
 20
1097.036159020177
 30
0.0
 40
0.5
  0
CIRCLE
  5
B96
330
1F
100
AcDbEntity
  8
LED素子
 48
0.5
100
AcDbCircle
 10
2387.656179814155
 20
1107.642760737974
 30
0.0
 40
0.5
  0
CIRCLE
  5
B97
330
1F
100
AcDbEntity
  8
LED素子
 48
0.5
100
AcDbCircle
 10
2392.049578096357
 20
1118.249362455773
 30
0.0
 40
0.5
  0
CIRCLE
  5
B98
330
1F
100
AcDbEntity
  8
LED素子
 48
0.5
100
AcDbCircle
 10
2402.656179814155
 20
1092.642760737974
 30
0.0
 40
0.5
  0
CIRCLE
  5
B99
330
1F
100
AcDbEntity
  8
LED素子
 48
0.5
100
AcDbCircle
 10
2413.262781531953
 20
1118.249362455773
 30
0.0
 40
0.5
  0
CIRCLE
  5
B9A
330
1F
100
AcDbEntity
  8
LED素子
 48
0.5
100
AcDbCircle
 10
2417.656179814155
 20
1107.642760737974
 30
0.0
 40
0.5
  0
CIRCLE
  5
B9B
330
1F
100
AcDbEntity
  8
LED素子
 48
0.5
100
AcDbCircle
 10
2413.262781531954
 20
1097.036159020176
 30
0.0
 40
0.5
  0
LINE
  5
BB0
330
1F
100
AcDbEntity
  8
LED素子
 48
0.5
100
AcDbLine
 10
2412.75632272435
 20
1003.665722599335
 30
0.0
 11
2413.75632272435
 21
1003.665722599334
 31
0.0
  0
TEXT
  5
FD8
330
1F
100
AcDbEntity
  8
DIM
 48
0.5
100
AcDbText
 10
2383.157335219749
 20
838.6076187684809
 30
0.0
 40
10.0
  1
LDF30A
  7
STYLE1
 72
     1
 11
2402.649721006552
 21
843.6076187684808
 31
0.0
100
AcDbText
 73
     2
  0
ENDSEC
  0
SECTION
  2
OBJECTS
  0
DICTIONARY
  5
C
330
0
100
AcDbDictionary
  3
ACAD_GROUP
350
D
  3
ACAD_LAYOUT
350
1A
  3
ACAD_MLINESTYLE
350
17
  3
ACAD_PLOTSETTINGS
350
19
  3
ACAD_PLOTSTYLENAME
350
E
  3
ACADDIM
350
3B
  3
ACDBHEADERROUNDTRIPXREC
350
FF3
  0
DICTIONARY
  5
1015
330
1F
100
AcDbDictionary
280
     1
  3
ACAD_LAYOUTSELFREF
360
1016
  0
DICTIONARY
  5
1013
330
1B
100
AcDbDictionary
280
     1
  3
ACAD_LAYOUTSELFREF
360
1014
  0
DICTIONARY
  5
D
102
{ACAD_REACTORS
330
C
102
}
330
C
100
AcDbDictionary
  3
*A1
350
40C
  0
DICTIONARY
  5
1A
102
{ACAD_REACTORS
330
C
102
}
330
C
100
AcDbDictionary
  0
DICTIONARY
  5
17
102
{ACAD_REACTORS
330
C
102
}
330
C
100
AcDbDictionary
  3
STANDARD
350
18
  0
DICTIONARY
  5
19
102
{ACAD_REACTORS
330
C
102
}
330
C
100
AcDbDictionary
  0
ACDBDICTIONARYWDFLT
  5
E
102
{ACAD_REACTORS
330
C
102
}
330
C
100
AcDbDictionary
281
     1
  3
Normal
350
F
100
AcDbDictionaryWithDefault
340
F
  0
XRECORD
  5
3B
102
{ACAD_REACTORS
330
C
102
}
330
C
100
AcDbXrecord
 90
   990106
  3

 60
     0
 61
     0
 62
     4
 63
     4
 64
     1
 65
     0
 66
     0
 67
     3
 68
     1
 69
     0
 70
     0
 71
     0
 72
     0
 40
0.0
170
     2
  0
DICTIONARY
  5
FF3
102
{ACAD_REACTORS
330
C
102
}
330
C
100
AcDbDictionary
  3
TSTACKALIGN
350
FF4
  3
TSTACKSIZE
350
FF5
  3
HYPERLINKBASE
350
FF6
  3
STYLESHEET
350
FF7
  3
LAYOUTDICT
350
FF8
  3
PLOTSETDICT
350
FF9
  3
PLOTSTYLNAMDICT
350
FFA
  3
LWETCUNION
350
FFB
  3
INSUNITS
350
FFC
  3
CEPSNTYPE
350
FFD
  3
FINGERPRINTGUID
350
FFE
  3
VERSIONGUID
350
FFF
  3
PSVPSCALE
350
1000
  3
PUCSORTHOREF
350
1001
  3
PUCSORTHOVIEW
350
1002
  3
PUCSBASE
350
1003
  3
PUCSORGTOP
350
1004
  3
PUCSORGBOTTOM
350
1005
  3
PUCSORGLEFT
350
1006
  3
PUCSORGRIGHT
350
1007
  3
PUCSORGFRONT
350
1008
  3
PUCSORGBACK
350
1009
  3
UCSORTHOREF
350
100A
  3
UCSORTHOVIEW
350
100B
  3
UCSBASE
350
100C
  3
UCSORGTOP
350
100D
  3
UCSORGBOTTOM
350
100E
  3
UCSORGLEFT
350
100F
  3
UCSORGRIGHT
350
1010
  3
UCSORGFRONT
350
1011
  3
UCSORGBACK
350
1012
  0
XRECORD
  5
1016
102
{ACAD_REACTORS
330
1015
102
}
330
1015
100
AcDbXrecord
340
1F
  0
XRECORD
  5
1014
102
{ACAD_REACTORS
330
1013
102
}
330
1013
100
AcDbXrecord
340
1B
  0
GROUP
  5
40C
102
{ACAD_REACTORS
330
D
102
}
330
D
100
AcDbGroup
300

 70
     1
 71
     1
  0
MLINESTYLE
  5
18
102
{ACAD_REACTORS
330
17
102
}
330
17
100
AcDbMlineStyle
  2
STANDARD
 70
     0
  3

 62
   256
 51
90.0
 52
90.0
 71
     2
 49
0.5
 62
   256
  6
BYLAYER
 49
-0.5
 62
   256
  6
BYLAYER
  0
ACDBPLACEHOLDER
  5
F
102
{ACAD_REACTORS
330
E
102
}
330
E
100
AcDbPlaceHolder
280
     0
  0
XRECORD
  5
FF4
102
{ACAD_REACTORS
330
FF3
102
}
330
FF3
100
AcDbXrecord
 90
        1
  0
XRECORD
  5
FF5
102
{ACAD_REACTORS
330
FF3
102
}
330
FF3
100
AcDbXrecord
 90
       70
  0
XRECORD
  5
FF6
102
{ACAD_REACTORS
330
FF3
102
}
330
FF3
100
AcDbXrecord
  1

  0
XRECORD
  5
FF7
102
{ACAD_REACTORS
330
FF3
102
}
330
FF3
100
AcDbXrecord
  1
monochrome.ctb
  0
XRECORD
  5
FF8
102
{ACAD_REACTORS
330
FF3
102
}
330
FF3
100
AcDbXrecord
340
1A
  0
XRECORD
  5
FF9
102
{ACAD_REACTORS
330
FF3
102
}
330
FF3
100
AcDbXrecord
340
19
  0
XRECORD
  5
FFA
102
{ACAD_REACTORS
330
FF3
102
}
330
FF3
100
AcDbXrecord
340
E
  0
XRECORD
  5
FFB
102
{ACAD_REACTORS
330
FF3
102
}
330
FF3
100
AcDbXrecord
 90
    10781
  0
XRECORD
  5
FFC
102
{ACAD_REACTORS
330
FF3
102
}
330
FF3
100
AcDbXrecord
 90
        4
  0
XRECORD
  5
FFD
102
{ACAD_REACTORS
330
FF3
102
}
330
FF3
100
AcDbXrecord
 90
        0
  0
XRECORD
  5
FFE
102
{ACAD_REACTORS
330
FF3
102
}
330
FF3
100
AcDbXrecord
  1
{7590CCFC-F398-11D5-ACE4-0000F495DB00}
  0
XRECORD
  5
FFF
102
{ACAD_REACTORS
330
FF3
102
}
330
FF3
100
AcDbXrecord
  1
{2AB61007-14ED-4B84-BA77-56914BCDAB33}
  0
XRECORD
  5
1000
102
{ACAD_REACTORS
330
FF3
102
}
330
FF3
100
AcDbXrecord
 40
0.0
  0
XRECORD
  5
1001
102
{ACAD_REACTORS
330
FF3
102
}
330
FF3
100
AcDbXrecord
340
0
  0
XRECORD
  5
1002
102
{ACAD_REACTORS
330
FF3
102
}
330
FF3
100
AcDbXrecord
 70
     0
  0
XRECORD
  5
1003
102
{ACAD_REACTORS
330
FF3
102
}
330
FF3
100
AcDbXrecord
340
0
  0
XRECORD
  5
1004
102
{ACAD_REACTORS
330
FF3
102
}
330
FF3
100
AcDbXrecord
 10
0.0
 20
0.0
 30
0.0
  0
XRECORD
  5
1005
102
{ACAD_REACTORS
330
FF3
102
}
330
FF3
100
AcDbXrecord
 10
0.0
 20
0.0
 30
0.0
  0
XRECORD
  5
1006
102
{ACAD_REACTORS
330
FF3
102
}
330
FF3
100
AcDbXrecord
 10
0.0
 20
0.0
 30
0.0
  0
XRECORD
  5
1007
102
{ACAD_REACTORS
330
FF3
102
}
330
FF3
100
AcDbXrecord
 10
0.0
 20
0.0
 30
0.0
  0
XRECORD
  5
1008
102
{ACAD_REACTORS
330
FF3
102
}
330
FF3
100
AcDbXrecord
 10
0.0
 20
0.0
 30
0.0
  0
XRECORD
  5
1009
102
{ACAD_REACTORS
330
FF3
102
}
330
FF3
100
AcDbXrecord
 10
0.0
 20
0.0
 30
0.0
  0
XRECORD
  5
100A
102
{ACAD_REACTORS
330
FF3
102
}
330
FF3
100
AcDbXrecord
340
0
  0
XRECORD
  5
100B
102
{ACAD_REACTORS
330
FF3
102
}
330
FF3
100
AcDbXrecord
 70
     0
  0
XRECORD
  5
100C
102
{ACAD_REACTORS
330
FF3
102
}
330
FF3
100
AcDbXrecord
340
0
  0
XRECORD
  5
100D
102
{ACAD_REACTORS
330
FF3
102
}
330
FF3
100
AcDbXrecord
 10
0.0
 20
0.0
 30
0.0
  0
XRECORD
  5
100E
102
{ACAD_REACTORS
330
FF3
102
}
330
FF3
100
AcDbXrecord
 10
0.0
 20
0.0
 30
0.0
  0
XRECORD
  5
100F
102
{ACAD_REACTORS
330
FF3
102
}
330
FF3
100
AcDbXrecord
 10
0.0
 20
0.0
 30
0.0
  0
XRECORD
  5
1010
102
{ACAD_REACTORS
330
FF3
102
}
330
FF3
100
AcDbXrecord
 10
0.0
 20
0.0
 30
0.0
  0
XRECORD
  5
1011
102
{ACAD_REACTORS
330
FF3
102
}
330
FF3
100
AcDbXrecord
 10
0.0
 20
0.0
 30
0.0
  0
XRECORD
  5
1012
102
{ACAD_REACTORS
330
FF3
102
}
330
FF3
100
AcDbXrecord
 10
0.0
 20
0.0
 30
0.0
  0
ENDSEC
  0
EOF
